Guitaretab - guitar tabs
Song name
# A B C D E F G H I J K L M N O P Q R S T U V W X Y Z

Living Death - Rulers Must Come tab

---------------------------------------------------------------------
	          Rulers Must Come - Living Death
---------------------------------------------------------------------
Tabbed by: SpikeUKno12
Email: perryharwood@hotmail.co.uk

Tuning: Standard (EADGBe)

http://www.angelfire.com/az/livingdeath/biography.html

 Iíve been hoping some one would post a tab for this for ages, so I decided
 to do one myself. Itís my first tab, so be nice. I know itís not perfect,
 but it should be enough to give a good idea of how the song should go. Iíll
 try and finish it off when I get the time.


Intro

e|------------------------------------------------------------------|
B|------------------------------------------------------------------|
G|------------------------------------------------------------------|
D|-9---10---9---7-------------9---10---9---7------------------------|
A|---7----7---7---7-10-7-9h10---7----7---7---7-10-7-9h10------------|
E|---------------------------------------------------------------x6-|
   * * *  * * * * * *  * * *  * * *  * * * * * *  * * *

e|------------------------------------------------------------------|
B|------------------------------------------------------------------|
G|------------------------------------------------------------------|
D|------------------------------------------------------------------|
A|-9-9-------9-9--12--------9-9-------9-9-------9-9--12-------------|
E|-7-7-------7-7--10--------7-7-------7-7-------7-7--10----------x1-|

e|------------------------------------------------------------------|
B|------------------------------------------------------------------|
G|------------------------------------------------------------------|
D|-9------9------9----7/10------9------9------9----7/10-------------|
A|-7------7------7----5/8-------7------7------7----5/8--------------|
E|----0-0----0-0----0--------------0-0----0-0----0---------------x2-|
      * *    * *    *              * *    * *    *

Verse

e|------------------------------------------------------------------|
B|------------------------------------------------------------------|
G|------------------------------------------------------------------|
D|-9--9--9--9--12/11----9--9--9--9--12/11---------------------------|
A|-7--7--7--7--10/9-----7--7--7--7--10/9----------------------------|
E|--00-00-00-00----------00-00-00-00-----------------------------x4-|
    ** ** ** **          ** ** ** **

Pre Chorus

e|------------------------------------------------------------------|
B|------------------------------------------------------------------|
G|------------------------------------------------------------------|
D|-5-----------------------------------------------4--7-------------|
A|-3-3-3-3-3-3-3-3-3-3-3-3-3-3-3-3-3-3-3-3-3-3-3-3-2--5--7----------|
E|-------------------------------------------------------5-------x2-|
     * * * * * * * * * * * * * * * * * * * * * * * 
      On second repeat, do not play the final A power chord.

Chorus

[ Tab from: http://www.guitaretab.com/l/living-death/188527.html ]
e|------------------------------------------------------------------|
B|------------------------------------------------------------------|
G|------------------------------------------------------------------|
D|-9--------------7--6---9--------------7--6------------------------|
A|-7--------------5--4---7--------------5--4------------------------|
E|----0-0-0-0-0-0-----------0-0-0-0-0-0--------------------------x2-|
      * * * * * *           * * * * * *

Interlude

e|------------------------------------------------------------------|
B|------------------------------------------------------------------|
G|---11-12-9-11----9--------------11tr12----------------------------|
D|-9------------12---11---------------------------------------------|
A|------------------------------------------------------------------| 
E|----------------------x3-then----------------------------------x2-|
   * *  *  * *  *  * * 

e|------------------------------------------------------------------|
B|------------------------------------------------------------------|
G|---9-10-7-9----7-----7-8-5-7---5----------------------------------|
D|-7----------10---9-5---------8---7--------------------------------|
A|------------------------------------------------------------------|
E|---------------------------------------------------------------x1-|
   * * *  * * *  * * * * * * * * * *

e|------------------------------------------------------------------|
B|------------------------------------------------------------------|
G|------------------------------------------------------7-----------|
D|-2--------------2--------------2----------------4-5-7---7-5-4-----|
A|-2--------------2--------------2--------------7-------------------|
E|-0--0-0-0-0-0-0-0--0-0-0-0-0-0-0--0-0-0-0-0-0------------------x3-|
      * * * * * *    * * * * * *    * * * * * *

e|------------------------------------------------------------------|
B|------------------------------------------------------------------|
G|------------------------------------------------------------------|
D|-2--------------2--------------2---------------9--9---------------|
A|-2--------------2--------------2---------------7--7---------------|
E|-0--0-0-0-0-0-0-0--0-0-0-0-0-0-0--0-0-0-0-0-0------------------x1-|
      * * * * * *    * * * * * *    * * * * * *
SOLO!

e|------------------------------------------------------------------|
B|------------------------------------------------------------------|
G|------------------------------------------------------------------|
D|-9------9------9----7-10------9------9------9----7-10-------------|
A|-7------7------7----5-8-------7------7------7----5-8--------------|
E|----0-0----0-0----0--------------0-0----0-0----0---------------x4-|
      * *    * *    *              * *    * *    *
    This is the backing for the solo. Iím not good enough to work the solo out yet .

Order:
Intro
Verse
Pre Chorus
Chorus
Verse
Pre Chorus
Chorus x2
Interlude
Solo 
Verse
Pre Chorus
Chorus x2
Outro (Havenít worked out the outro yet. Iíll try it when I have some free time)

Enjoy.

| /  slide up
| \  slide down
| h  hammer-on
| p  pull-off
| ~  vibrato
| +  harmonic
| *  Mute note
=====================================================================