Song name
# A B C D E F G H I J K L M N O P Q R S T U V W X Y Z

Living End - Dirty Man tab

Dirty Man Tab *The Proper Thing ffs*
X = Scratch
P = Palm Muted

Intro
e---------5-5---------5-5-----|
b-----5-5---------5-5---------|
g-2-2---------2-2-------------|
d-----------------------------|
a-----------------------------|
e-----------------------------|

e-----------------5-5---------|
b-----5-5-----5-5-------------|
g-2-2-----2-2-----------------|
d-----------------------------|
a-----------------------------|
e-----------------------------| x 3 i think (repeat as needed*

Verse:
Dirty Man Thinks He Cant....
e-----------------------------|
b-----------------------------|
g-----------------------------|
d-2p-2p-2p-2p-2p-2p-2p-2p-0p--|
a-0p-0p-0p-0p-0p-0p-0p-0p-0p--|
e-0p-0p-0p-0p-0p-0p-0p-0p-0p--|x3

Bridge
After (The occupant of his mind) it goes
e-----------------------------|
b-----------------------------|
g-----------------------------|
d-1111--xx--1111--------------|<----- These are Elevens.
a-1111--xx--1111--------------|
e-9-9---xx--9-9---------------|

e-----------------------------|
b-----------------------------|
g-----------------------------|
d-1111--xx--1111--------------|<----- These are Elevens.
a-1111--xx--1111--------------|
e-9-9---xx--9-9---------------|


Verse
Dirty Man Dirty Thoughts should know better
e-----------------------------|
b-----------------------------|
g-----------------------------|
d-2p-2p-2p-2p-2p-2p-2p-2p-0p--|
a-0p-0p-0p-0p-0p-0p-0p-0p-0p--|
e-0p-0p-0p-0p-0p-0p-0p-0p-0p--|x3

Bridge
At The time he will find out things don't work out his way-->

e-----------------------------|
b-----------------------------|
g-----------------------------|
d-1111--xx--1111--------------|<----- These are Elevens.
a-1111--xx--1111--------------|
e-9-9---xx--9-9---------------|
e-----------------------------|
b-----------------------------|
g-----------------------------|
d-1111--xx--1111--------------|<----- These are Elevens.
a-1111--xx--1111--------------|
e-9-9---xx--9-9---------------|


Chorus- And if he were to be the public enemy.
e-2-2-2--0-0-0--0-0-0--x-x-x--|
b-3-3-3--0-0-0--2-2-2--x-x-x--|
g-2-2-2--1-1-1--2-2-2--x-x-x--|
d-0-0-0--2-2-2--2-2-2--4-4-4--|
a-0-0-0--2-2-2--0-0-0--4-4-4--|
e-x-x-x--0-0-0--0-0-0--2-2-2--|

e-2-2-2--0-0-0--0-0-0--x-x-x--|
b-3-3-3--0-0-0--2-2-2--x-x-x--|
g-2-2-2--1-1-1--2-2-2--x-x-x--|
d-0-0-0--2-2-2--2-2-2--4-4-4--|
a-0-0-0--2-2-2--0-0-0--4-4-4--|
e-x-x-x--0-0-0--0-0-0--2-2-2--|

And made a part of his HEY made a part of his HEY

e-----------------------------|
b-----------------------------|
g-----------------------------|
d-----------------------------|
a--4-4--4-4--4-4--------------|
e--2-2--2-2--2-2--------------|

Like i was born on saturday

e-3-3-3-----------------------|
b-3-3-3-----------------------|
g-0-0-2-----------------------|
d-0-2-x-----------------------|
a-2-3-x-----------------------|
e-3-x-x-----------------------|

Feel like i just got married, and divorced in the one day
e-3-3-3-----------------------|
b-3-3-3-----------------------|
g-0-0-2-----------------------|
d-0-2-x-----------------------|
a-2-3-x-----------------------|
e-3-x-x-----------------------|

and its not my fault and its not my fault

e-3-3-3-----------------------|
b-3-3-3-----------------------|
g-0-0-2-----------------------|
d-0-2-x-----------------------|
a-2-3-x-----------------------|
e-3-x-x-----------------------|

back to intro for 2 bars
e---------5-5---------5-5-----|
b-----5-5---------5-5---------|
g-2-2---------2-2-------------|
d-----------------------------|
a-----------------------------|
e-----------------------------|

e-----------------5-5---------|
b-----5-5-----5-5-------------|
g-2-2-----2-2-----------------|
d-----------------------------|
a-----------------------------|
e-----------------------------|

Then It goes back into the Verse. then Chorus, Havent figured solo out yet, thats all i 
and song is complete. Easy nuf to figure out the strum pattern, Please tell me any 
i've made and i will fix it. Or Email me for other songs at sk8er_freak13@hotmail.com
Tap to rate this tab
# A B C D E F G H I J K L M N O P Q R S T U V W X Y Z