Song name
# A B C D E F G H I J K L M N O P Q R S T U V W X Y Z

Living End - Trapped tab

                    xxx THE LIVING END xxx
                          "Trapped"
             as heard on the 1998 self titled album


                      *INTRO/VERSE*
                   Ska style strumming

your best off getting your fingers into barr chords and major chords to hold
these notes properly...

        G                   Bm
e-x--3--x--3--x--3--x--3-|-x--2--x--2--x--2--x--2--|
B-x--3--x--3--x--3--x--3-|-x--3--x--3--x--3--x--3--|
G-x--4--x--4--x--4--x--4-|-x--4--x--4--x--4--x--4--|
D------------------------|-------------------------|
A------------------------|-------------------------|
E------------------------|-------------------------|

        C
E-x-----x-----x-----x----|-x--2--x--2--x--2--x--2--|
B-x--5--x--5--x--5--x--5-|-x--3--x--3--x--3--x--3--|
G-x--5--x--5--x--5--x--5-|-x--2--x--2--x--2--x--2--|
D----5-----5-----5-----5-|-------------------------|
A------------------------|-------------------------|
E------------------------|-------------------------|

                     *PRE CHORUS*

        G                          D
e-x--7--x--7--x--7--x--7-|-x--2--x--2--x--2--x--2-|
B-x--8--x--8--x--8--x--8-|-x--3--x--3--x--3--x--3-|
G-x--7--x--7--x--7--x--7-|-x--2--x--2--x--2--x--2-|
D------------------------|------------------------|
A------------------------|------------------------|
E------------------------|------------------------|
... Standing on the right side ...
         G                    C           D
e-x--7--x--7--x--7--x--7-|-x--0--x--0--x--2--x--2-|
B-x--8--x--8--x--8--x--8-|-x--1--x--1--x--3--x--3-|
G-x--7--x--7--x--7--x--7-|-x--0--x--0--x--2--x--2-|
D------------------------|------------------------|
A------------------------|------------------------|
E------------------------|------------------------|
... Who knows whats right , riiigghhht ? ...

*on the second time through just before the chorus it changes to ... *

         G                  C           D              C          D
e-x--7--x--7--x--7--x--7-|-x--0--x--0----------2----x--0--X--0----------2--|
B-x--8--x--8--x--8--x--8-|-x--1--x--1------3-----3--x--1--x--1------3-----3|
G-x--7--x--7--x--7--x--7-|-x--0--x--0----2---2------x--0--x--0----2---2----|
D------------------------|-------------------------------------------------|
A------------------------|-------------------------------------------------|
E------------------------|-------------------------------------------------|

   D
e-----------------|
B-----------------|
G--7-7-7-7--7\----|
D--7-7-7-7--7\----|
A--5-5-5-5--5\----|
E-----------------|

                       *CHORUS*

  G         B          C      D#    F
e----------------------------------------------|
B----------------------------------------------|
G----------44444444-55555555-8888--10-10-10-10-|
D-55555555-44444444-55555555-8888--10-10-10-10-|
A-55555555-22222222-33333333-6666--8--8--8--8--|
E-33333333-------------------------------------|


                        *SOLO*

e---------------------------|--------------------------|
B---------------------------|--------------------------|
G-5-5b7---55-0-2-2b---22-0--|-5-5b7---55-0-2-2b---22-0-|
D---------------------------|--------------------------|
A---------------------------|--------------------------|
E---------------------------|--------------------------|

e---------------------------|--------------------------|
B---------------------------|--------------------------|
G-7-7b9---77-0-4-4b---44-0--|-7-7b9---77-0-4-4b---44-0-|
D---------------------------|--------------------------|
A---------------------------|--------------------------|
E---------------------------|--------------------------|

e---------------------------------|--------------------------------|
B---------------------------------|--------------------------------|
G-10-10b12---10-10-0-7-7b---77-0--|-10-10b12---10-10-0-7-7b---77-0-|
D---------------------------------|--------------------------------|
A---------------------------------|--------------------------------|
E---------------------------------|--------------------------------|

e---------------------------------|----------------------|
B---------------------------------|-10-10-10-10b10b10b10-|
G-10-10b12---10-10-0-7-7b---77-0--|----------------------|
D---------------------------------|----------------------|
A---------------------------------|----------------------|
E---------------------------------|----------------------|

the very last break is the same chords you've been using throughout the whole song just 
timing  with a 2nd guitar doing this ...


e-33-33-33-33-3-3---------------------|
B-------------------------------------|
G-------------------------------------|
D-------------------------------------|
A-------------------------------------|
E-------------------------------------| x4

easy peasy pumpkin pie its not hard to figure out timing for the last part.
play along to the cd if u must.
thier best cd of all

Cheers XXX
Tap to rate this tab
# A B C D E F G H I J K L M N O P Q R S T U V W X Y Z