Song name
# A B C D E F G H I J K L M N O P Q R S T U V W X Y Z

Living Sacrifice - Hidden tab

Help us improve GuitareTab! Take a short survey!
I noticed there were'nt any LS tabs out here on UG, so I decided to make one.
Well, it's just the intro, but that's all I got right now, and I haven't been
at my guitar for awhile. I hope you like it.

Living Sacrifice        Hidden intro
Drop-D Tuning (D-A-D-G-B-e)

w/ Light Distortion and tremelo
e-------------------------------------
B-------------------------------------
G-------------------------------------
D-------------------------------------
A--5---7-------5----------------------
D-0--0---5-7-0---0--0--7(bend)--------

Heavy Distortion, no tremelo
e------------
B------------
G------------
D-0-0-2-3----
A-0-0-2-3----
D-0-0-2-3----

Well, I'm off to tab out the rest of this song.  Living Sacrifice is an awesome
metal band, and their talent shouldn't be dismissed.
God Bless!
Related for Hidden tab