Song name
# A B C D E F G H I J K L M N O P Q R S T U V W X Y Z

Living Sacrifice - Burn The End tab

Help us improve GuitareTab! Take a short survey!
#----------------------------------PLEASE NOTE---------------------------------#
#This file is the author's own work and represents their interpretation of the #
#song. You may only use this file for private study, scholarship, or research. #
#------------------------------------------------------------------------------#

BURN THE END
As recorded by Living Sacrifice
(From the 2000 Album THE HAMMERING PROCESS)


Transcribed by BassP86

 Words and Music by Living Sacrifice

 

Eb
x 9 x x 11 9 

Ebm
x x x 11 10 9 

C#7
0 x 9 7 9 7 

B5
x 5 7 x x x 


Gtr I (C# F# B E G# C#) - 'Bruce Fitzhugh - Rhythm'
Gtr II (C# F# B E G# C#) - 'Rocky Gray - Lead'
Gtr III (C# F# B E G# C#) - 'Bruce Fizthugh - Rhythm'
Gtr IV (C# F# B E G# C#) - 'Rocky Gray - Lead'
Gtr V (C# F# B E G# C#) - 'Rocky Gray - Extra Lead'
Gtr VI (C# F# B E G# C#) - 'Rocky Gray - Extra Lead'


   Intro
    Q=155
    F#5       G5        A#5             F#5       G5        A#5       E5
   4/4
    Gtrs I, II
                                                                    PM
    E E E E E E E E   E E E E E E E E   E E E E E E E E   E E E E E E Q
||------------------|-----------------|-----------------|------------------||
||o-----------------|-----------------|-----------------|-----------------o||
||------------------|-----------------|-----------------|------------------||
||------------------|---3-3-3-3-3-3-3-|-----------------|---3-3-3-3--------||
||o-4-4-4-4-4-5-5-5-|-5-1-1-1-1-1-1-1-|-4-4-4-4-4-5-5-5-|-5-1-1-1-1---2---o||
||--2-2-2-2-2-3-3-3-|-3---------------|-2-2-2-2-2-3-3-3-|-3---------0-0----||


    F#5       G5        A#5
    E E E E E E E E   E  E  E  E  E  E  E  E
||------------------|------------------------|
||o-----------------|------------------------|
||------------------|------------------------|
||------------------|----3--3--3--3--3--3--3-|
||o-4-4-4-4-4-5-5-5-|-5--1--1--1--1--1--1--1-|
||--2-2-2-2-2-3-3-3-|-3----------------------|
|
|   Gtr V
|   E E E E E E E E   E  E  E  E  E  E  E  E
||------------------|------------------------|
||o-7-7-7-7-7-8-8-8-|-8-11-11-11-11-11-11-11-|
||------------------|------------------------|
||--4-4-4-4-4-5-5-5-|-5--8--8--8--8--8--8--8-|
||o-----------------|------------------------|
||------------------|------------------------|


  F#5       G5        A#5           E5
                                  PM
  E E E E E E E E   E  E  E  E  E E Q
|-----------------|---------------------||
|-----------------|--------------------o||
|-----------------|---------------------||
|-----------------|----3--3--3--3-------||
|-4-4-4-4-4-5-5-5-|-5--1--1--1--1---2--o||
|-2-2-2-2-2-3-3-3-|-3-------------0-0---||
|
|                                 PM
| E E E E E E E E   E  E  E  E  E E Q
|-----------------|---------------------||
|-7-7-7-7-7-8-8-8-|-8-11-11-11-11------o||
|-----------------|---------------------||
|-4-4-4-4-4-5-5-5-|-5--8--8--8--8-------||
|-----------------|-----------------2--o||
|-----------------|---------------0-0---||


 1st Verse
  F#5
  Gtrs I, V
  >
  W                 +W                  +W                  +W
|-----------------|-------------------|-------------------|--------------------|
|-----------------|-------------------|-------------------|--------------------|
|-----------------|-------------------|-------------------|--------------------|
|-----------------|-------------------|-------------------|--------------------|
|-4---------------|-(4)---------------|-(4)---------------|-(4)----------------|
|-2---------------|-(2)---------------|-(2)---------------|-(2)----------------|
|
| Gtr II
| PM------------------------------------------------------------------------|
| E E E E E E E E    E  E E E E E E E    E  E E E E E E E    E  E E E E E E E
|-----------------|-------------------|-------------------|--------------------|
|-----------------|-------------------|-------------------|--------------------|
|-----------------|-------------------|-------------------|--------------------|
|-----------------|-------------------|-------------------|--------------------|
|-----------1-----|-------------1-----|-------------1-----|-------------1------|
|-3-2-3-2-2---2-2-|--3--2-3-2-2---2-2-|--3--2-3-2-2---2-2-|--3--2-3-2-2---2-2--|


  N.C.
  Gtr II
  PM------------------------------------------------------------------|
  E E E E E E E E   E E E E E E E E   E E E E E E E E   E E E E E E E E
|-----------------|-----------------|-----------------|------------------|
|-----------------|-----------------|-----------------|------------------|
|-----------------|-----------------|-----------------|------------------|
|-----------------|-----------------|-----------------|------------------|
|-----------1-----|-----------1-----|-----------1-----|-----------1------|
|-3-2-3-2-2---2-2-|-3-2-3-2-2---2-2-|-3-2-3-2-2---2-2-|-3-2-3-2-2---2-2--|


    N.C.
    Gtrs I, II
    PM------------------------------------------------------------------|
    E E E E E E E E   E E E E E E E E   E E E E E E E E   E E E E E E E E
||------------------|-----------------|-----------------|------------------||
||o-----------------|-----------------|-----------------|-----------------o||
||------------------|-----------------|-----------------|------------------||
||------------------|-----------------|-----------------|------------------||
||o-----------1-----|-----------1-----|-----------1-----|-----------1-----o||
||--3-2-3-2-2---2-2-|-3-2-3-2-2---2-2-|-3-2-3-2-2---2-2-|-3-2-3-2-2---2-2--||


   Re-Intro
    F#5       G5        A#5             F#5       G5        A#5       E5
                                                                    PM
    E E E E E E E E   E E E E E E E E   E E E E E E E E   E E E E E E Q
||------------------|-----------------|-----------------|-----------------||
||o-----------------|-----------------|-----------------|----------------o||
||------------------|-----------------|-----------------|-----------------||
||------------------|---3-3-3-3-3-3-3-|-----------------|---3-3-3-3-------||
||o-4-4-4-4-4-5-5-5-|-5-1-1-1-1-1-1-1-|-4-4-4-4-4-5-5-5-|-5-1-1-1-1---2--o||
||--2-2-2-2-2-3-3-3-|-3---------------|-2-2-2-2-2-3-3-3-|-3---------0-0---||


 Pre-Verse
  N.C.
  PM-------------------------------------------------------------------|
  E E E E E E E E   E E E E E E E E   E E E E E E E E   E  E E E E E E E
|-----------------|-----------------|-----------------|-------------------|
|-----------------|-----------------|-----------------|-------------------|
|-----------------|-----------------|-----------------|-------------------|
|-----------------|-----------------|-----------------|-------------------|
|-----------1-----|-----------1-----|-----------1-----|------------1------|
|-3-2-3-2-2---2-2-|-3-2-3-2-2---2-2-|-3-2-3-2-2---2-2-|-3--2-3-2-2---2-2--|
|
| Gtr V
| W                 W                 W                 H.           E E
|-----------------|-----------------|-----------------|-------------------|
|-7---------------|-7---------------|-7---------------|-7------------7-7--|
|-----------------|-----------------|-----------------|-------------------|
|-4---------------|-4---------------|-4---------------|-4------------4-4--|
|-----------------|-----------------|-----------------|-------------------|
|-----------------|-----------------|-----------------|-------------------|


  N.C.
  PM---------------------------------------------------------------------|
  E E   E E E E E E   E E E E E E E E   E E E E E E E E   E  E E E E E E E
|-------------------|-----------------|-----------------|-------------------||
|-------------------|-----------------|-----------------|-------------------||
|-------------------|-----------------|-----------------|-------------------||
|-------------------|-----------------|-----------------|-------------------||
|-------------1-----|-----------1-----|-----------1-----|------------1------||
|-3-2---3-2-2---2-2-|-3-2-3-2-2---2-2-|-3-2-3-2-2---2-2-|-3--2-3-2-2---2-2--||
|
| E H..               W                 W                 H.           E E
|-------------------|-----------------|-----------------|-------------------||
|-7s8---------------|-8---------------|-8---------------|-8------------8-8--||
|-------------------|-----------------|-----------------|-------------------||
|-4s5---------------|-5---------------|-5---------------|-5------------5-5--||
|-------------------|-----------------|-----------------|-------------------||
|-------------------|-----------------|-----------------|-------------------||


 2nd Verse
  N.C.
  PM------------------------------------------------------------------|
  E E E E E E E E   E E E E E E E E   E E E E E E E E   E E E E E E E E
|-----------------|-----------------|-----------------|------------------|
|-----------------|-----------------|-----------------|------------------|
|-----------------|-----------------|-----------------|------------------|
|-----------------|-----------------|-----------------|------------------|
|-----------1-----|-----------1-----|-----------1-----|-----------1------|
|-3-2-3-2-2---2-2-|-3-2-3-2-2---2-2-|-3-2-3-2-2---2-2-|-3-2-3-2-2---2-2--|
|
| E E E E E E E E   E E E E E E E E   E E E E E E E E   E E E E E E E E
|-----------------|-----------------|-----------------|------------------|
|-8s7-7-7-7-7-7-7-|-7-7-7-7-7-7-7-7-|-7-7-7-7-7-7-7-7-|-7-7-7-7-7-7-7-7--|
|-----------------|-----------------|-----------------|------------------|
|-5s4-4-4-4-4-4-4-|-4-4-4-4-4-4-4-4-|-4-4-4-4-4-4-4-4-|-4-4-4-4-4-4-4-4--|
|-----------------|-----------------|-----------------|------------------|
|-----------------|-----------------|-----------------|------------------|


  N.C.
  PM---------------------------------
  E E E E E E E E   E E E E E E E E
|-----------------|-----------------|
|-----------------|-----------------|
|-----------------|-----------------|
|-----------------|-----------------|
|-----------1-----|-----------1-----|
|-3-2-3-2-2---2-2-|-3-2-3-2-2---2-2-|
|
| E E E E E E E E   E E E E E E E E
|-----------------|-----------------|
|-7s8-8-8-8-8-8-8-|-8-8-8-8-8-8-8-8-|
|-----------------|-----------------|
|-4s5-5-5-5-5-5-5-|-5-5-5-5-5-5-5-5-|
|-----------------|-----------------|
|-----------------|-----------------|


 -----------------------------------------------|
  E  E  E  E  E  E  E  E    E  E  E  E  E  E  E  E
|------------------------|--------------------------||
|------------------------|--------------------------||
|------------------------|--------------------------||
|------------------------|--------------------------||
|----------------1-------|-----------------1--------||
|-3--2--3--2--2-----2--2-|--3--2--3--2--2-----2--2--||
|
| E  E  E  E  E  E  E  E    E  E  E  E  E  E  E  E
|------------------------|--------------------------||
|-8s11-11-11-11-11-11-11-|-11-11-11-11-11-11-11-11--||
|------------------------|--------------------------||
|-5s=8--8--8--8--8--8--8-|--8--8--8--8--8--8--8--8--||
|------------------------|--------------------------||
|------------------------|--------------------------||


 Chorus
  G5      A#5          G5   A#5          G5   A#5          G5
 4/4
  Gtrs I, II
        PM           PM   PM           PM   PM           PM
  q  q  E q  E   +e  E q  E q  E   +e  E q  E q  E   +e  E E E E E E E
|--------------|-----------------|-----------------|-------------------|
|--------------|-----------------|-----------------|-------------------|
|--------------|-----------------|-----------------|-------------------|
|---------3----|------------3----|------------3----|-------------------|
|-5--5----1--5-|-(5)---5----1--5-|-(5)---5----1--5-|-(5)---5---1-----5-|
|-3--3--0----3-|-(3)-3-3--0----3-|-(3)-3-3--0----3-|-(3)-3-3-0---0-2-3-|


          G5   A#5G5        G5   A#5G5        G5   A#5G5
        PM   PM           PM   PM           PM   PM
    +e  E q  E q  E   +e  E q  E q  E   +e  E q  E q  E
||------------------|-----------------|-----------------|
||o-----------------|-----------------|-----------------|
||------------------|-----------------|-----------------|
||-------------3----|------------3----|------------3----|
||o-(5)---5----1--5-|-(5)---5----1--5-|-(5)---5----1--5-|
||--(3)-3-3--0----3-|-(3)-3-3--0----3-|-(3)-3-3--0----3-|


  1.,2.                 3.
        G5        G5          G5
      PM                    PM  PM
  +e  E E E E E E E  3x +e  E E E E E E E
|--------------------||--------------------||
|-------------------o||--------------------||
|--------------------||--------------------||
|--------------------||--------------------||
|-(5)---5---1-----5-o||-(5)---5-----1------||
|-(3)-3-3-0---0-2-3--||-(3)-3-3-0-0---0-2--||


   Bridge
    F#5       G5        Bb5             F#5       G5        Bb5       E5
                                                                    PM
    E E E E E E E E   E E E E E E E E   E E E E E E E E   E E E E E E Q
||------------------|-----------------|-----------------|-----------------||
||o-----------------|-----------------|-----------------|----------------o||
||------------------|-----------------|-----------------|-----------------||
||------------------|---3-3-3-3-3-3-3-|-----------------|---3-3-3-3-------||
||o-4-4-4-4-4-5-5-5-|-5-1-1-1-1-1-1-1-|-4-4-4-4-4-5-5-5-|-5-1-1-1-1---2--o||
||--2-2-2-2-2-3-3-3-|-3---------------|-2-2-2-2-2-3-3-3-|-3---------0-0---||


  F#5
  >
  W          +W           +W           +W
|----------|------------|------------|--------|
|----------|------------|------------|--------|
|----------|------------|------------|--------|
|----------|------------|------------|--------|
|-4--------|-(4)--------|-(4)--------|-(4)----|
|-2--------|-(2)--------|-(2)--------|-(2)----|


  W          W          W          W
|----------|----------|----------|------||
|----------|----------|----------|------||
|----------|----------|----------|------||
|----------|----------|----------|------||
|----------|----------|----------|------||
|----------|----------|----------|------||


   Interlude
    F#m                   B5
    Gtr III
     H     Q   E  E    E   Q.    Q.    E
||---9-----9--------|--------------------|
||o-10----10--10----|-----12----12----12-|
||--11----11--------|-11--11----11-------|
||---------------14-|--------------------|
||o-----------------|--------------------|
||------------------|--------------------|
|
|   Gtr IV
|    H     Q   E  E   +E   Q.    Q.    E
||------------------|--------------------|
||o--7-----7---7----|--------------------|
||---6-----6------6-|-(6)--9-----9-----9-|
||------------------|------9-----9-------|
||o-----------------|--------------------|
||------------------|--------------------|


          F#m             B5
   E Q.    Q   E  E    E   Q.    Q   Q
|--7h9-----9--------|-------------------|
|-10------10--10----|-----12----12------|
|-11------11--------|-11--11----11--11--|
|----------------14-|-------------------|
|-------------------|-------------------|
|-------------------|-------------------|
|
|  E Q.    Q   E  E   +E   Q.    Q   Q
|-------------------|-------------------|
|----7-----7---7----|-------------------|
|--9-------6------6-|-(6)--9-----9------|
|-------------------|------9-----9---9--|
|-------------------|-------------------|
|-------------------|-------------------|


  N.C.
  H    E E E E   +E  E E Q  E E E   H    E E E E   +E  E E Q  E E E
|-7----7-----7-|-(7)-----7--------|-7----7-----7-|-(7)-----7----------||
|-7------7-----|-----7------7-----|-7------7-----|-----7------7------o||
|-9--------9---|-------9------9---|-9--------9---|-------9------9-----||
|-9------------|----------------9-|-9------------|----------------9---||
|--------------|------------------|--------------|-------------------o||
|--------------|------------------|--------------|--------------------||
|
| H    E E E E   +E  E E Q  E Q     H    E E E E   +E  E E Q  E Q
|--------------|------------------|--------------|--------------------||
|-7----7-----7-|-(7)-----7--------|-7----7-----7-|-(7)-----7---------o||
|-9------9-----|-----9------9-----|-9------9-----|-----9------9-------||
|-9--------9---|-------9------9---|-9--------9---|-------9------9-----||
|--------------|------------------|--------------|-------------------o||
|--------------|------------------|--------------|--------------------||


 Guitar Solo
  F#m                        B5
   H       Q   E  E       E   Q.        Q.          E
|--9-------9-----------|------------------------------|
|-10------10--10-------|-----12--------12----------12-|
|-11------11-----------|-11--11--------11-------------|
|----------------14----|------------------------------|
|----------------------|------------------------------|
|----------------------|------------------------------|
|
|  H       Q   E  E      +E   Q.        Q.          E
|----------------------|------------------------------|
|--7-------7---7-------|------------------------------|
|--6-------6------6----|-(6)--9---------9-----------9-|
|----------------------|------9---------9-------------|
|----------------------|------------------------------|
|----------------------|------------------------------|
|
| Gtr VI
|  ~~~~
|  H..            S  S    E   E   E  E  S  S  E  E  E
|----------------------|------------------------------|
|-14-------------14-15-|-17--15--14-15-14h15p14----14-|
|----------------------|------------------------16----|
|----------------------|------------------------------|
|----------------------|------------------------------|
|----------------------|------------------------------|


               F#m                B5
   E  Q.        Q     E  E     E   Q.           Q    Q
|--7h=9---------9----------|-----------------------------------|
|-10-----------10----10----|------12-----------12--------------|
|-11-----------11----------|--11--11-----------11---11---------|
|-----------------------14-|-----------------------------------|
|--------------------------|-----------------------------------|
|--------------------------|-----------------------------------|
|
|  E  Q.        Q     E  E    +E   Q.           Q    Q
|--------------------------|-----------------------------------|
|-----7---------7-----7----|-----------------------------------|
|--9------------6--------6-|--(6)--9------------9--------------|
|--------------------------|-------9------------9----9---------|
|--------------------------|-----------------------------------|
|--------------------------|-----------------------------------|
|
|  E  E   E  E  E  E  Q       +E   E   E  S  S  Q.      S  S
|--------------------------|-----------------------------------|
|-----------17-------------|-----------------------------------|
|-14-13--14----14-13-------|-------------13h14p13------13-14---|
|--------------------16----|-(16)-16--16-----------------------|
|--------------------------|-----------------------------------|
|--------------------------|-----------------------------------|


  N.C.
   H           E  E  E  E   +E   E E Q    E  E  E
|--7-----------7--------7-|-(7)------7------------|
|--7--------------7-------|------7--------7-------|
|--9-----------------9----|--------9---------9----|
|--9----------------------|---------------------9-|
|-------------------------|-----------------------|
|-------------------------|-----------------------|
|
|  H           E  E  E  E   +E   E E Q    E  Q
|-------------------------|-----------------------|
|--7-----------7--------7-|-(7)------7------------|
|--9--------------7-------|------7--------9-------|
|--9-----------------9----|--------9---------9----|
|-------------------------|-----------------------|
|-------------------------|-----------------------|
|
|  E  E  E  E  E  E  E  E    E   E E E E  E  E  E
|-------------------------|-----------------------|
|-17-------15-------14----|-----12----------------|
|----14-13----13-11----11-|--9-----9-8-9-11-14-11-|
|-------------------------|-----------------------|
|-------------------------|-----------------------|
|-------------------------|-----------------------|


   H              E  E E     E      +E  E E     Q       E  E  E
|--7--------------7----------7----|-(7)---------7---------------|
|--7-----------------7------------|-----7---------------7-------|
|--9-------------------9----------|-------9----------------9----|
|--9------------------------------|---------------------------9-|
|---------------------------------|-----------------------------|
|---------------------------------|-----------------------------|
|
|  H              E  E E     E      +E  E E     Q       E  Q
|---------------------------------|-----------------------------|
|--7--------------7----------7----|-(7)---------7---------------|
|--9-----------------9------------|-----9---------------9-------|
|--9-------------------9----------|-------9----------------9----|
|---------------------------------|-----------------------------|
|---------------------------------|-----------------------------|
|
|  Q.    a  S  S  Q.      a  S  S    Q.      a  S  S  Q    E  E
|---------------------------------|-----------------------------|
|---------------------------------|-----------------------------|
|-13----13h14p13p11------14p13h14p|=13------13h14p13p11------13-|
|---------------------------------|-----------------------14----|
|---------------------------------|-----------------------------|
|---------------------------------|-----------------------------|


  F#m                      B5
   H     Q     E  E     E   Q.      Q.      E
|--9-----9----------|-------------------------|
|-10----10----10----|------12------12------12-|
|-11----11----------|--11--11------11---------|
|----------------14-|-------------------------|
|-------------------|-------------------------|
|-------------------|-------------------------|
|
|  H     Q     E  E    +E   Q.      Q.      E
|-------------------|-------------------------|
|--7-----7-----7----|-------------------------|
|--6-----6--------6-|--(6)--9-------9-------9-|
|-------------------|-------9-------9---------|
|-------------------|-------------------------|
|-------------------|-------------------------|
|
|  H     E  E  E  E    +E   E   Q   E   Q   E
|-------------------|-------------------------|
|----------------14-|-(14)--------------------|
|-11----11-13-14----|------14--16------13---9-|
|-------------------|--------------14---------|
|-------------------|-------------------------|
|-------------------|-------------------------|


          F#m                B5
   E Q.    Q     E  E     E   Q.      Q     Q
|--7h9-----9----------|--------------------------|
|-10------10----10----|------12------12----------|
|-11------11----------|--11--11------11----11----|
|------------------14-|--------------------------|
|---------------------|--------------------------|
|---------------------|--------------------------|
|
|  E Q.    Q     E  E    +E   Q.      Q     Q
|---------------------|--------------------------|
|----7-----7-----7----|--------------------------|
|--9-------6--------6-|--(6)--9-------9----------|
|---------------------|-------9-------9-----9----|
|---------------------|--------------------------|
|---------------------|--------------------------|
|
|  H       E  E  E  E    +E   E   Q   E  Q    E
|---------------------|--------------------------|
|------------------14-|-(14)---------------------|
|-11------11-13-14----|------14--16-----13----9--|
|---------------------|--------------14----------|
|---------------------|--------------------------|
|---------------------|--------------------------|


  N.C.
  Gtrs I, II
    W                    W
    H     E  E  E  E    +E   E  E  Q   E  E     E
|---7-----7--------7-|--(7)--------7--------------|
|---7--------7-------|-------7---------7----------|
|---9-----------9----|----------9---------9-------|
|---9----------------|--------------------------9-|
|--------------------|----------------------------|
|--------------------|----------------------------|
|
|   H     E  E  E  E    +E   E  E  Q   E  Q
|--------------------|----------------------------|
|---7-----7--------7-|--(7)--------7--------------|
|---9--------9-------|-------9---------9----------|
|---9-----------9----|----------9---------9-------|
|--------------------|----------------------------|
|--------------------|----------------------------|
|
|   H     E  E  E  E    +E   E  E  Q   E  S  S  E
|--------------------|----------------------------|
|-----------14-15-17-|-(17)-15-14-15--15-14h15p14-|
|-/16----16----------|----------------------------|
|--------------------|----------------------------|
|--------------------|----------------------------|
|--------------------|----------------------------|


                                                  F#5
   W                         H.                    Q
                                                   |
                                                   o

   H           E  E  E  E   +E   E  E     Q     E  E  E
|--7-----------7--------7-|-(7)-----------7--------------||
|--7--------------7-------|------7--------------7--------||
|--9-----------------9----|---------9--------------9-----||
|--9----------------------|---------------------------9--||
|-------------------------|------------------------------||
|-------------------------|------------------------------||
|
|  H           E  E  E  E   +E   E  E     Q     E  Q
|-------------------------|------------------------------||
|--7-----------7--------7-|-(7)-----------7--------------||
|--9--------------9-------|------9--------------9--------||
|--9-----------------9----|---------9--------------9-----||
|-------------------------|------------------------------||
|-------------------------|------------------------------||
|
|  E  E  E  E  E  E  E  E    E   E  S  S  E  E  E  E  E
|-------------------------|------------------------------||
|----14-------17-------15-|------------------------------||
|-16----16-14----14-13----|-14--13-13h14p13----------13--||
|-------------------------|-----------------16-14-14-----||
|-------------------------|------------------------------||
|-------------------------|------------------------------||


 Breakdown
  F#5                                  E5
  Gtr VI
   ~~
   W                 W                 W                 W
|------------------|-----------------|-----------------|------------------|
|------------------|-----------------|-----------------|------------------|
|-11---------------|-----------------|-----------------|------------------|
|------------------|-----------------|-----------------|------------------|
|------------------|-----------------|-----------------|------------------|
|------------------|-----------------|-----------------|------------------|
|
| Gtrs I, II
|    PM    PM  PM      PM  PM  PM  PM          PM  PM      PM  PM  PM  PM
|  e E E E E E E E   E E E E E E E E   E E E E E E E E   E E E E E E E E
|------------------|-----------------|-----------------|------------------|
|------------------|-----------------|-----------------|------------------|
|------------------|-----------------|-----------------|------------------|
|----------------5-|-4---------------|---------------5-|-4----------------|
|--4---5-4---2-----|-----4---5---4---|-2---5-4---2-----|-----4---5---4----|
|--2-2-----2---2---|---2---2---2---2-|-0-0-----2---2---|---2---2---2---2--|
|
| Gtr V
|  E E E E E E E E   E E E E E E E E   E E E E E E E E   E E E E E E E E
|------------------|-----------------|-----------------|------------------|
|--7-7-7-7-7-7-7-7-|-7-7-7-7-7-7-7-7-|-5-5-5-5-5-5-5-5-|-5-5-5-5-5-5-5-5--|
|------------------|-----------------|-----------------|------------------|
|--4-4-4-4-4-4-4-4-|-4-4-4-4-4-4-4-4-|-2-2-2-2-2-2-2-2-|-2-2-2-2-2-2-2-2--|
|------------------|-----------------|-----------------|------------------|
|------------------|-----------------|-----------------|------------------|


  F#5                                 E5
  Gtrs I, II
    PM    PM  PM      PM  PM  PM  PM    PM    PM  PM      PM  PM  PM  PM
  E E E E E E E E   E E E E E E E E   E E E E E E E E   E E E E E E E E
|-----------------|-----------------|-----------------|------------------|
|-----------------|-----------------|-----------------|------------------|
|-----------------|-----------------|-----------------|------------------|
|---------------5-|-4---------------|---------------5-|-4----------------|
|-4---5-4---2-----|-----4---5---4---|-2---5-4---2-----|-----4---5---4----|
|-2-2-----2---2---|---2---2---2---2-|-0-0-----2---2---|---2---2---2---2--|
|
| Gtr V
| E E E E E E E E   E E E E E E E E   E E E E E E E E   E E E E E E E E
|-----------------|-----------------|-----------------|------------------|
|-7-7-7-7-7-7-7-7-|-7-7-7-7-7-7-7-7-|-5-5-5-5-5-5-5-5-|-5-5-5-5-5-5-5-5--|
|-----------------|-----------------|-----------------|------------------|
|-4-4-4-4-4-4-4-4-|-4-4-4-4-4-4-4-4-|-2-2-2-2-2-2-2-2-|-2-2-2-2-2-2-2-2--|
|-----------------|-----------------|-----------------|------------------|
|-----------------|-----------------|-----------------|------------------|


    F#5                                 F#5
      PM    PM  PM      PM  PM  PM  PM    PM    PM  PM      PM  PM  PM  PM
    E E E E E E E E   E E E E E E E E   E E E E E E E E   E E E E E E E E
||------------------|-----------------|-----------------|-----------------|
||o-----------------|-----------------|-----------------|-----------------|
||------------------|-----------------|-----------------|-----------------|
||----------------5-|-5---------------|---------------5-|-5---------------|
||o-4---5-4---2-----|-----4---5---4---|-4---5-4---2-----|-----4---5---4---|
||--2-2-----2---2---|---2---2---2---2-|-2-2-----2---2---|---2---2---2---2-|
|
|   E E E E E E E E   E E E E E E E E   E E E E E E E E   E E E E E E E E
||------------------|-----------------|-----------------|-----------------|
||o-7-7-7-7-7-7-7-8-|-8-8-8-8-8-8-8-8-|-7-7-7-7-7-7-7-8-|-8-8-8-8-8-8-8-8-|
||------------------|-----------------|-----------------|-----------------|
||--4-4-4-4-4-4-4-5-|-5-5-5-5-5-5-5-5-|-4-4-4-4-4-4-4-5-|-5-5-5-5-5-5-5-5-|
||o-----------------|-----------------|-----------------|-----------------|
||------------------|-----------------|-----------------|-----------------|


  F#5                                                 F#5
      PM       PM    PM         PM    PM    PM    PM
   E  E  E  E  E  E  E  E    E  E  E  E  E  E  E  E   H..       +E    +W
|-------------------------|-------------------------|---------------|---------||
|-------------------------|-------------------------|---------------|--------o||
|-------------------------|-------------------------|---------------|---------||
|-----------------------5-|--4----------------------|---------------|---------||
|--4-----5--4-----2-------|--------4-----5-----4----|-4---------(4)-|-(4)----o||
|--2--2--------2-----2----|-----2-----2-----2-----2-|-2---------(2)-|-(2)-----||
|
|  E  E  E  E  E  E  E  E    E  E  E  E  E  E  E  E   H..        E    +W
|-------------------------|-------------------------|---------------|---------||
|-10-10-10-10-10-10-10-10-|-10-10-10-10-10-10-10-10-|------------7--|-(7)----o||
|-------------------------|-------------------------|---------------|---------||
|--7--7--7--7--7--7--7--7-|--7--7--7--7--7--7--7--7-|------------4--|-(4)-----||
|-------------------------|-------------------------|-4-------------|--------o||
|-------------------------|-------------------------|-2-------------|---------||


    F#5                                 D5                          E5
    E E E E E E E E   E E E E E E E E   E E E E E E E E   E E E E E E E E
||------------------|-----------------|-----------------|------------------||
||o-----------------|-----------------|-----------------|-----------------o||
||------------------|-----------------|-----------------|------------------||
||------------------|-----------------|-----------------|------------------||
||o-4-4-4-4-4-4-4-4-|-4-4-4-4-4-4-4-4-|-4-4-4-4-4-4-4-4-|-4-4-4-4-4-4-4-4-o||
||--2-2-2-2-2-2-2-2-|-2-2-2-2-2-2-2-2-|-2-2-2-2-2-2-2-2-|-2-2-2-2-2-2-2-2--||
|
|   E E E E E E E E   E E E E E E E E   E E E E E E E E   E E E E E E E E
||------------------|-----------------|-----------------|------------------||
||o-----------------|-----------------|-----------------|-----------------o||
||------------------|-----------------|-----------------|------------------||
||------------------|-----------------|-7-7-7-7-7-7-7-7-|-7-7-7-7-7-9-9-9--||
||o-4-4-4-4-4-4-4-4-|-4-4-4-4-4-4-4-4-|-5-5-5-5-5-5-5-5-|-5-5-5-5-5-7-7-7-o||
||--2-2-2-2-2-2-2-2-|-2-2-2-2-2-2-2-2-|-----------------|------------------||


    F#5               F#5
    E E E E E E E E   E  E  E  E  E  E  E  E
||------------------|------------------------|
||o-----------------|------------------------|
||------------------|------------------------|
||------------------|------------------------|
||o-4-4-4-4-4-4-4-4-|-4--4--4--4--4--4--4--4-|
||--2-2-2-2-2-2-2-2-|-2--2--2--2--2--2--2--2-|
|
|   E E E E E E E E   E  E  E  E  E  E  E  E
||------------------|------------------------|
||o-7-7-7-7-7-8-8-8-|-8-11-11-11-11-11-11-11-|
||------------------|------------------------|
||--4-4-4-4-4-5-5-5-|-5--8--8--8--8--8--8--8-|
||o-----------------|------------------------|
||------------------|------------------------|


 1.
  F#5               F#5
  E E E E E E E E   E  E  E  E  E  E  E  E
|-----------------|-------------------------||
|-----------------|------------------------o||
|-----------------|-------------------------||
|-----------------|-------------------------||
|-4-4-4-4-4-4-4-4-|-4--4--4--4--4--4--4--4-o||
|-2-2-2-2-2-2-2-2-|-2--2--2--2--2--2--2--2--||
|
| E E E E E E E E   E  E  E  E  E  E  E  E
|-----------------|-------------------------||
|-7-7-7-7-7-8-8-8-|-8-11-11-11-11-11-11-11-o||
|-----------------|-------------------------||
|-4-4-4-4-4-5-5-5-|-5--8--8--8--8--8--8--8--||
|-----------------|------------------------o||
|-----------------|-------------------------||


  2.
  G5F#5 G5F#5 G5F#5     F#5
      PM    PM           PM---------------|
  E E E E E E E E   +E   E  E  E  E  E  E  E
|-----------------|--------------------------||
|-----------------|--------------------------||
|-----------------|--------------------------||
|-----------------|--------------------------||
|-5-4---5-4---5-4-|-(4)--4--4--4--4--4--4--4-||
|-3-2-2-3-2-2-3-2-|-(2)--2--2--2--2--2--2--2-||
|
| E E E E E E E E    E   E  E  E  E  E  E  E
|-----------------|--------------------------||
|-7-7-7-7-7-8-8-8-|--8--11-11-11-11-11-11-11-||
|-----------------|--------------------------||
|-4-4-4-4-4-5-5-5-|--5---8--8--8--8--8--8--8-||
|-----------------|--------------------------||
|-----------------|--------------------------||


   Out-Chorus
    F#5       G5        Bb5             F#5       G5        Bb5       E5
                                                                    PM
    E E E E E E E E   E E E E E E E E   E E E E E E E E   E E E E E E Q
||------------------|-----------------|-----------------|-----------------||
||o-----------------|-----------------|-----------------|----------------o||
||------------------|-----------------|-----------------|-----------------||
||------------------|---3-3-3-3-3-3-3-|-----------------|---3-3-3-3-------||
||o-4-4-4-4-4-5-5-5-|-5-1-1-1-1-1-1-1-|-4-4-4-4-4-5-5-5-|-5-1-1-1-1---2--o||
||--2-2-2-2-2-3-3-3-|-3---------------|-2-2-2-2-2-3-3-3-|-3---------0-0---||


   Outro
    F#5       G5        Bb5
      PM----|   PM----|   PM--------|
    E E E E E E E E   E E E E E E E E
||------------------|-----------------|
||o-----------------|-----------------|
||------------------|-----------------|
||------------------|---3-3-3-3-3-3-3-|
||o-4-4-4-4-4-5-5-5-|-5-1-1-1-1-1-1-1-|
||--2-2-2-2-2-3-3-3-|-3---------------|


  Eb5       E5        G5      C#C#5    Eb5
    PM----|   PM----|   PM--|
  E E E E E E E E   E E E E E E Q      q  H    Q
|-----------------|-----------------||-------------*|
|-----------------|----------------o||-------------*|
|-----------------|-----------------||-------------*|
|-----------------|---3-3-3-3-------||-------------*|
|-4-4-4-4-4-5-5-5-|-5-1-1-1-1---2--o||-4-----------*|
|-2-2-2-2-2-3-3-3-|-3---------0-0---||-2-----------*|




--------------------------------------------------------------------------------


Duration Legend
---------------
W - whole; H - half; Q - quarter; E - 8th; S - 16th; T - 32nd; X - 64th; a - acciaccatura
+ - note tied to previous; . - note dotted; .. - note double dotted
Uncapitalized letters represent notes that are staccato (1/2 duration)
Irregular groupings are notated above the duration line
Duration letters will always appear directly above the note/fret number it represents the
duration for.  Duration letters with no fret number below them represent rests.  Multi-
bar rests are notated in the form Wxn, where n is the number of bars to rest for.  Low
melody durations appear below the staff

Tablature Legend
----------------
 h   - hammer-on
 p   - pull-off
 b   - bend
 pb  - pre-bend
 r   - bend release (if no number after the r, then release immediately)
 /\  - slide into or out of (from/to "nowhere")
 s   - legato slide
 S   - shift slide
 - natural harmonic
[n]  - artificial harmonic
n(n) - tapped harmonic
 ~   - vibrato
 tr  - trill
 T   - tap
 TP  - trem. picking
 PM  - palm muting
\n/  - tremolo bar dip; n = amount to dip
 \n  - tremolo bar down
 n/  - tremolo bar up
/n\  - tremolo bar inverted dip
 =   - hold bend; also acts as connecting device for hammers/pulls
 <> - volume swell (louder/softer)
 x   - on rhythm slash represents muted slash
 o   - on rhythm slash represents single note slash

Misc Legend
-----------
 |  - bar
||  - double bar
||o - repeat start
o|| - repeat end
*|  - double bar (ending)
 :  - bar (freetime)
 $  - Segno
 &  - Coda
Tempo markers -  = BPM(8/16=s8/s16), where s8 = swing 8ths, s16 = swing 16ths

Related for Burn The End tab