Song name
# A B C D E F G H I J K L M N O P Q R S T U V W X Y Z

Living Sacrifice - Walls Of Separation tab

tabbed by Jesus Gomez  You didn't belive me!

E|-----------------|
B|-----------------|
G|-----------------| x4
D|---------0-------|
A|---------------1-|
E|---7-------------|

E|-----------------------------------------|
B|-----------------------------------------|
G|---8xxx--8xxx--11xxx--11xxx--7xxx--7xxx--|     
D|---8xxx--8xxx--11xxx--11xxx--7xxx--7xxx--|
A|---6xxx--6xxx---9xxx---9xxx--5xxx--5xxx--|
E|-----------------------------------------|
 
      
E|---------------|-------------| 
B|---------------|-------------|
G|---------------|-------------| 
D|---------------|-------------|
A|---------------|-------------|  
E|---7-665-3-2-0-|--7-65-3-2-0-|

E|---------------------------------------------------------|
B|---------------------------------------------------------|
G|---8xxx--8xxx--11xxx--11xxx--11xxx--11xxx--11xxx--11xxx--|
D|---8xxx--8xxx--11xxx--11xxx--12xxx--12xxx--12xxx--12xxx--|  x3
A|---6xxx--6xxx---9xxx---9xxx---8xxx---8xxx---8xxx---8xxx--|
E|---------------------------------------------------------|


E|---------------------------------------------------|
B|---------------------------------------------------|
G|---------------------------------------------------|  x4
D|---------------------------------------------------|
A|---5-----5-----5-----4---5-|-2---------2----1----2-|
E|----0000--0000--000---000--|--00000000--000--000---|

E|-----------------------|---------------------|
B|-----------------------|---------------------|
G|-----------------------|---------------------|
D|-----------------------|---------------------| x4
A|-----------------------|---------------------|
E|---7777-6666-9999-7777-|-3333-4444-2222-3333-|

  PM---------------------
E|------------------------|
B|------------------------|
G|------------------------|
D|------------------------| x4
A|---99-88--|-55-66-44-55-|
E|---77-66--|-33-44-22-33-|
 





                              
Tap to rate this tab
 
# A B C D E F G H I J K L M N O P Q R S T U V W X Y Z