Guitaretab - guitar tabs
Song name
# A B C D E F G H I J K L M N O P Q R S T U V W X Y Z

Living Syndication - 13 Minutes tab

Tabbed by: maxgreen
Email: faon_rahir@hotmail.com

sorry for any spelling mistakes my keybord hates me...

Tuning: EADGBe
[ Tab from: http://www.guitaretab.com/l/living-syndication/54679.html ]
intro/verse
e|----------------------------------------------------|
B|----------------------------------------------------|
G|-----4-4-4/-7-7-7-7---------------------------------|
D|-----4-4-4/-7-7-7-7-5-5-5-5-5-----------------------|
A|-----2-2-2/-5-5-5-5-5-5-5-5-5-----------------------|(repeat untill chorus)
E|--------------------3-3-3-3-3-----------------------|

chorus
e|------------------------------------|
B|------------------------------------|
G|----7-7-7-7-7-7----5-5-5-5-5-5-5-5--|
D|----7-7-7-7-7-7----5-5-5-5-5-5-5-5--|(repeat then go back to verse)
A|----5-5-5-5-5-5----3-3-3-3-3-3-3-3--|
E|------------------------------------|

this is an easy song sorry i couldnt figure out the solo (i tryed and failed)
Advertisement will be closed in 10 seconds