Guitaretab - guitar tabs
Song name
# A B C D E F G H I J K L M N O P Q R S T U V W X Y Z

Living Things - Bombs Below tab

-------------------------------------------------------------------------------
			Bombs Below - Living Things
-------------------------------------------------------------------------------
Tabbed by: Jolz
Email:Jolzton@hotmail.com

Tuning: EADGBE (standard) 

This is my first Tab, I did it all from ear, so the solo might 100% but its not far off.
Good song and very easy to play, enjoy.

Intro
e|---------------------------------------------------------------------------|
B|---------------------------------------------------------------------------|
G|-5-5-------------------------------5-5-------------------------------------|
D|-5-5-------------------------------5-5-------------------------------------|
A|-3-3-------------------------------3-3-------------------------------------|
E|---------------------------------------------------------------------------|

e|---------------------------------------------------------------------------|
B|---------------------------------------------------------------------------|
G|-5-5-------------------------------5-5-------------------------------------|
D|-5-5-------------------------------5-5-------------------------------------|
A|-3-3-3-3-3-3-3-3--3-3-3-3-3-3-3-3--3-3-3-3-3-3-3-3--3-3-3-3-3-3-3-3--------|
E|---------------------------------------------------------------------------|

Verse 1 
e|---------------------------------------------------------------------------|
B|---------------------------------------------------------------------------|
G|-5-5-------------------------------5-5-------------------------------------|
D|-5-5-------------------------------5-5-------------------------------------|
A|-3-3-3-3-3-3-3-3--3-3-3-3-3-3-3-3--3-3-3-3-3-3-3-3--3-3-3-3-3-3-3-3--------|
E|---------------------------------------------------------------------------|

e|---------------------------------------------------------------------------|
B|---------------------------------------------------------------------------|
G|-3-3-------------------------------5-5-5-5-5-5-5-5--5-5-5-5-5-5-5-5--------|
D|-3-3-------------------------------5-5-5-5-5-5-5-5--5-5-5-5-5-5-5-5--------|
A|-1-1-1-1-1-1-1-1--1-1-1-1-1-1-1-1--3-3-3-3-3-3-3-3--3-3-3-3-3-3-3-3--------|
E|---------------------------------------------------------------------------|

Verse 2
e|---------------------------------------------------------------------------|
B|---------------------------------------------------------------------------|
G|-5-5-5-5-5-5-5-5--5-5-5-5-5-5-5-5--5-5-5-5-5-5-5-5--5-5-5-5-5-5-5-5--------|
D|-5-5-5-5-5-5-5-5--5-5-5-5-5-5-5-5--5-5-5-5-5-5-5-5--5-5-5-5-5-5-5-5--------|
A|-3-3-3-3-3-3-3-3--3-3-3-3-3-3-3-3--3-3-3-3-3-3-3-3--3-3-3-3-3-3-3-3--------|
E|---------------------------------------------------------------------------|

e|---------------------------------------------------------------------------|
B|---------------------------------------------------------------------------|
G|-3-3-3-3-3-3-3-3-3-3-3-3-3-3-3-3--5-5-5-5-5-5-5-5--5-5-5-5-5-5-5-5--------|
D|-3-3-3-3-3-3-3-3-3-3-3-3-3-3-3-3--5-5-5-5-5-5-5-5--5-5-5-5-5-5-5-5--------|
A|-1-1-1-1-1-1-1-1--1-1-1-1-1-1-1-1--3-3-3-3-3-3-3-3--3-3-3-3-3-3-3-3--------|
E|---------------------------------------------------------------------------|

Chorus
e|---------------------------------------------------------------------------|
B|---------------------------------------------------------------------------|
G|-8-8-8-8-8-8-8-8-----------------------------------------------------------|
D|-8-8-8-8-8-8-8-8--8-8-8-8-8-8-8-8------------------------------------------|
A|-6-6-6-6-6-6-6-6--8-8-8-8-8-8-8-8------6-6-----6-6------6-6-----6----------|
E|------------------6-6-6-6-6-6-6-6--8-8-----8-8------8-8-----8-8---8--X4----|

Guitar Break
e|---------------------------------------------------------------------------|
B|---------------------------------------------------------------------------|
G|--------------3~----------------------------3~-5~-5~-5~-5-3----------------|
D|-3-5-5~-5-3-5----5-5-3~-5-5-3--3-5-5~-5-3-5-----------------5--------------|
A|---------------------------------------------------------------------------|
E|---------------------------------------------------------------------------|
Verse 3 
e|---------------------------------------------------------------------------|
B|---------------------------------------------------------------------------|
G|---------------------------------------------------------------------------|
D|---------------------------------------------------------------------------|
A|-3-3-3-3-3-3-3-3--3-3-3-3-3-3-3-3--3-3-3-3-3-3-3-3--3-3-3-3-3-3-3-3--------|
E|---------------------------------------------------------------------------|
[ Tab from: http://www.guitaretab.com/l/living-things/53177.html ]
e|---------------------------------------------------------------------------|
B|---------------------------------------------------------------------------|
G|-3-3-3-3-3-3-3-3-3-3-3-3-3-3-3-3--5-5-5-5-5-5-5-5--5-5-5-5-5-5-5-5--------|
D|-3-3-3-3-3-3-3-3-3-3-3-3-3-3-3-3--5-5-5-5-5-5-5-5--5-5-5-5-5-5-5-5--------|
A|-1-1-1-1-1-1-1-1--1-1-1-1-1-1-1-1--3-3-3-3-3-3-3-3--3-3-3-3-3-3-3-3--------|
E|---------------------------------------------------------------------------|


Chorus
e|---------------------------------------------------------------------------|
B|---------------------------------------------------------------------------|
G|-8-8-8-8-8-8-8-8-----------------------------------------------------------|
D|-8-8-8-8-8-8-8-8--8-8-8-8-8-8-8-8------------------------------------------|
A|-6-6-6-6-6-6-6-6--8-8-8-8-8-8-8-8------6-6-----6-6------6-6-----6----------|
E|------------------6-6-6-6-6-6-6-6--8-8-----8-8------8-8-----8-8---8--X4----|


Guitar solo
e|---------------------------------------------------------------------------|
B|---------------------------------------------------------------------------|
G|--------------3~----------------------------3~----------------------------|
D|-3-5-5~-5-3-5----5-5-3~-5-5-3--3-5-5~-5-3-5----5-5-3~-5-5~~----------------|
A|---------------------------------------------------------------------------|
E|---------------------------------------------------------------------------|

e|---------------------------------------------------------------------------|
B|--------------4~-----------------------------------------------------------|
G|-3-5-5~-5-3-5---5-5-3~-5-5-3--3-5-5~-5-5-5-5-5-5-5-5-5-5-3----------------|
D|-----------------------------------------------------------5---------------|
A|---------------------------------------------------------------------------|
E|---------------------------------------------------------------------------|

e|---------------------------------------------------------------------------|
B|---------------------------------------------------------------------------|
G|--------------3~----------------------------3~----------------------------|
D|-3-5-5~-5-3-5----5-5-3~-5-5-3--3-5-5~-5-3-5----5-5-3~-5-5~~----------------|
A|---------------------------------------------------------------------------|
E|---------------------------------------------------------------------------|

e|---------------------------------------------------------------------------|
B|-------------------11~-----------------------------------------------------|
G|-10-12-12~-12-10-12---12-12-10~-12-12-10~-10-10-12~-10-10-12~-10-12-12-12--|
D|---------------------------------------------------------------------------|
A|---------------------------------------------------------------------------|
E|---------------------------------------------------------------------------|

e|---------------------------------------------------------------------------|
B|---------------------------------------------------------------------------|
G|-12-12-12\----------------------------------------------------------------|
D|---------------------------------------------------------------------------|
A|---------------------------------------------------------------------------|
E|---------------------------------------------------------------------------|

Verse 4 
e|---------------------------------------------------------------------------|
B|---------------------------------------------------------------------------|
G|---------------------------------------------------------------------------|
D|---------------------------------------------------------------------------|
A|-3-3-3-3-3-3-3-3--3-3-3-3-3-3-3-3--3-3-3-3-3-3-3-3--3-3-3-3-3-3-3-3--------|
E|---------------------------------------------------------------------------|



e|---------------------------------------------------------------------------|
B|---------------------------------------------------------------------------|
G|-3-3-3-3-3-3-3-3-3-3-3-3-3-3-3-3--5-5-5-5-5-5-5-5--5-5-5-5-5-5-5-5--------|
D|-3-3-3-3-3-3-3-3-3-3-3-3-3-3-3-3--5-5-5-5-5-5-5-5--5-5-5-5-5-5-5-5--------|
A|-1-1-1-1-1-1-1-1--1-1-1-1-1-1-1-1--3-3-3-3-3-3-3-3--3-3-3-3-3-3-3-3--------|
E|---------------------------------------------------------------------------|

Chorus
e|---------------------------------------------------------------------------|
B|---------------------------------------------------------------------------|
G|-8-8-8-8-8-8-8-8-----------------------------------------------------------|
D|-8-8-8-8-8-8-8-8--8-8-8-8-8-8-8-8------------------------------------------|
A|-6-6-6-6-6-6-6-6--8-8-8-8-8-8-8-8------6-6-----6-6------6-6-----6----------|
E|------------------6-6-6-6-6-6-6-6--8-8-----8-8------8-8-----8-8---8-X4----|

| /  slide up
| \  slide down
| h  hammer-on
| p  pull-off
| ~  vibrato
| +  harmonic
| x  Mute note
===============================================================================
Related for Bombs Below tab