Song name
# A B C D E F G H I J K L M N O P Q R S T U V W X Y Z

Living Things - I Owe tab

This is my first tab so I don't think it's 100% accurate but it sounds good.

Band: Living Things
Song: I Owe
Author: Lillian Berlin
Album: Black skies in broad daylights


Intro/verse (I got a letter from the taxman, I owe...and they tell us...)

E:---------------|
B:---------------|
G:-------777777--|
D:-5555--555555--|
A:-5555--555555--|
E:-3333----------| x12

Chorus (...to lay low...let's go!)

E:--------------------|
B:--------------------|
G:-5---------------5--|
D:-5---5--7-5-2-5--5--|
A:-7---5--7-5-2-5--7--|
E:-----7--9-7-0-7-----|

Verse 2 - same chords as in "intro/verse" (I got a lawsuit from my best friend...)

Chorus

Idon'tknowwhattocallthispart (C'mon...The FBI, The CIA...)

[Not too sure about this]

E:--------------------|
B:--------------------|
G:-7777---------------|
D:-5555--555555-------|
A:-5555--555555-------|
E:-------333333-------|

Chorus


Idon'tknowwhattocallthispart (C'mon... all we need is love...)

E:--------------------|
B:--------------------|
G:-7777---------------|
D:-5555--555555-------|
A:-5555--555555-------|
E:-------333333-------|


Outro

[Not too sure about this either]


E:-----------|
B:-----------|
G:-5---------|
D:-5----5-3--|
A:-3----5-3--|
E:------3-3--|
Tap to rate this tab
# A B C D E F G H I J K L M N O P Q R S T U V W X Y Z