Song name
# A B C D E F G H I J K L M N O P Q R S T U V W X Y Z

Living Things - Born Under The Gun tab

i havent inluded timing really, but you can work that out, this is of the album "black 
in broad daylight"


INTRO/VERSE
E|------------|
B|------------|
G|------------|
D|---4-4-2----|
A|---4-4-2----|
E|---2-2-0----|X24

CHORUS
E|----------------------------------------------------|
B|----------------------------------------------------|
G|-----------2-2-2-4-4-4-0----------------------------|
D|-4-4-2-2-2-2-2-2-4-4-4-0----------------------------|
A|-4-4-2-2-2-0-0-0-2-2-2-0----------------------------|
E|-2-2-0-0-0------------------------------------------|X6

VERSE
E|------------|
B|------------|
G|------------|
D|---4-4-2----|
A|---4-4-2----|
E|---2-2-0----|X18

CHORUS
E|----------------------------------------------------|
B|----------------------------------------------------|
G|-----------2-2-2-4-4-4-0----------------------------|
D|-4-4-2-2-2-2-2-2-4-4-4-0----------------------------|
A|-4-4-2-2-2-0-0-0-2-2-2-0----------------------------|
E|-2-2-0-0-0------------------------------------------|X6


CHORUS/BRIDGE TO SOLO
E|-------------------------------------------------------|
B|-------------------------------------------------------|
G|------------2-2-2-4-4-4-0------------------------------|
D|-4--4--2--2-2-2-2-4-4-4-0------------------------------|
A|-4--4--2--2-0-0-0-2-2-2-0------------------------------|
E|-2--2--0--0--------------------------------------------|X4


SOLO
E|--------------------------|
B|--------------------------|
G|-5b-555555-5b-55555555-X2-|
D|--------------------------|
A|--------------------------|
E|--------------------------|

then...
E|---------------------------------------------------|
B|---------------------------------------------------|
G|-5bb-5bb-555-5bb-55-5bb-555-(5555555555555555------|bb-pull off last note to open G
D|---------------------------------------------------|
A|---------------------------------------------------|
E|---------------------------------------------------|

then...
E|---------------------------------------------------------------|
B|---------------------------------------------------------------|
G|---------------------------------------------------------------|
D|-----------------------9-9-9-7---------------------------------|
A|--9-9-9-9-9-9-12-12-12----------9-9-9-9-9-9--9-9-9--9-9-9-9----|
E|---------------------------------------------------------------|X2

CHORUS
E|----------------------------------------------------|
B|----------------------------------------------------|
G|-----------2-2-2-4-4-4-0----------------------------|
D|-4-4-2-2-2-2-2-2-4-4-4-0----------------------------|
A|-4-4-2-2-2-0-0-0-2-2-2-0----------------------------|
E|-2-2-0-0-0------------------------------------------|X6

OUTRO
E|-------------------------------------------------------|
B|-------------------------------------------------------|
G|------------2-2-2-4-4-4-0------------------------------|
D|-4--4--2--2-2-2-2-4-4-4-0------------------------------|
A|-4--4--2--2-0-0-0-2-2-2-0------------------------------|
E|-2--2--0--0--------------------------------------------|X4

end on
E|------------------------------------------------------|
B|------------------------------------------------------|
G|------------------------------------------------------|
D|--4---------------------------------------------------|
A|--4---------------------------------------------------|
E|--2---------------------------------------------------|
Tap to rate this tab
# A B C D E F G H I J K L M N O P Q R S T U V W X Y Z