Song name
# A B C D E F G H I J K L M N O P Q R S T U V W X Y Z

Living Things - March In Day Light tab

March In Day Light by Living Things
Tabbed by polo

standard tunning

1st guitar(with overdrive):

e---------------------------------------------------|
B---7-----7-----5---5-------7-----7-----5-----5-----|
G-6---6-7---7-4---4---4---6---6-7---7-4---4-4---4-4-|    x3
D---------------------------------------------------|
A---------------------------------------------------|
E---------------------------------------------------|

2nd guitar(with overdrive):

e--------------------------------|
B--------------------------------|
G-8--8-8-8p(9)p8-6-6-6-6-6-6-6-6-|
D-8--8-8-8p(9)p8-6-6-6-6-6-6-6-6-|
A-6--6-6-6p(7)p6-4-4-4-4-4-4-4-4-|
E--------------------------------|

b: pull off
(): note to reach


it's my first tab so it could be changed if someone doesn't agree with it.
(but I find it rather good ;-)


polo
Tap to rate this tab
# A B C D E F G H I J K L M N O P Q R S T U V W X Y Z