Livingston - Six By Four tab

==========================================
                Livingston
                Six By Four
Track #5 on the 2009 album "Sign Language"
==========================================

Tabbed by Pedro Macedo, A.K.A. Linkerman
Comments and ratings are very much appreciated!
E-mails to "o_samaritano-hellboy(at)sapo.pt"

Standard tuning


Intro
e|-*12*-----*12*-----*12*-----*12*-----|
B|-----*12*-----*12*-----*12*-----*12*-|
G|-------------------------------------| x2
D|-------------------------------------|
A|-------------------------------------|
E|-------------------------------------|


Verse
e|-----------------------------------|
B|-----------------------------------|
G|-----------------------------------| x5
D|-----2-1---------------6-4-----4-2-|
A|-0-0---------4-22-/-44-----2-2-----|
E|---------2-2-----------------------|


Chorus
e|-------------------------------------|
B|-------------------------------------|
G|-22222222----------66666666-44444444-| x2
D|-22222222-44444444-66666666-44444444-|
A|-00000000-44444444-44444444-22222222-|
E|----------22222222-------------------|


Play Verse x3

  Verse 2 Lead riff
e|----16---------------------------|
B|-14-----17-16-14--14-16-17-16-14-|
G|---------------------------------|
D|---------------------------------|
A|---------------------------------|
E|---------------------------------|

e|----16---------------------------------16---------------------------|
B|-14-----17-16-14--14-16-17-16-14-----------17-16-14--14-16-17-16-14-|
G|---------------------------------16-16------------------------------| x2
D|--------------------------------------------------------------------|
A|--------------------------------------------------------------------|
E|--------------------------------------------------------------------|

e|-------------------------------------------------|
B|-17-14-17-14-17-14-17-14-17-14-17-14-17-14-17-14-|
G|-------------------------------------------------|
D|-------------------------------------------------|
A|-------------------------------------------------|
E|-------------------------------------------------|


Play Chorus


Bridge
e||-----------------------------||-----------------------------------|
B||o---------------------------o||-----------------------------------|
G||--6-6-/-8-8-/-9-9-/-11-1111--||-1313131313131313-1111111111111111-| x2
D||--x-x-/-x-x-/-x-x-/--x--x-x--||--x-x-x-x-x-x-x-x--x-x-x-x-x-x-x-x-|
A||o-4-4-/-6-6-/-7-7-/--9--9-9-o||-1111111111111111--9-9-9-9-9-9-9-9-|
E||-----------------------------||-----------------------------------|

e|-------------------------------|---------------------------------|
B|-----5---5-----4---------4-----|-----5-----5-----7---------7-----|
G|---6-------6-----6---6-----6---|---6---6-----6-----6---6-----6---| x3
D|-7-----7-----7-----7---7-----7-|-7-------7-----7-----7---7-----7-|
A|-------------------------------|---------------------------------|
E|-------------------------------|---------------------------------|


Final Chorus                                                           x3
e|----------------------------||---------------------------------------||
B|----------------------------||o-------------------------------------o||
G|----------66666666-44444444-||--22222222----------66666666-44444444--||
D|-4~444444-66666666-44444444-||--22222222-44444444-66666666-44444444--||
A|-4~444444-44444444-22222222-||o-00000000-44444444-44444444-22222222-o||
E|-2~222222-------------------||-----------22222222--------------------||

e|--------------------------|-------------------------------|
B|--------------------------|-------------------------------|
G|--------------------------|-------------------------------|
D|-4-44-4-44-4-44-4-44-4-44-|-4-44-4-44-4-44-4-44-4-44-/-7b-|
A|-4-44-4-44-4-44-4-44-4-44-|-4-44-4-44-4-44-4-44-4-44-/-7b-|
E|-0-22-0-22-0-22-0-22-2-22-|-0-22-0-22-0-22-0-22-2-22------|

e|--------------------------|---------------|
B|--------------------------|---------------|
G|--------------------------|---------------|
D|-4-44-4-44-4-44-4-44-4-44-|-4-44-4-44-4-4-|
A|-4-44-4-44-4-44-4-44-4-44-|-4-44-4-44-4-4-|
E|-0-22-0-22-0-22-0-22-2-22-|-0-22-0-22-0-2-|


   Final Chorus Lead riff            x3
e||----------------------------------||-------------------------------|
B||o-5b6-6--7b8--8b9-9--10b11-11-11-o||-12b13-12b13-12b13-12b13-13-13-|
G||----------------------------------||-------------------------------|
D||----------------------------------||-------------------------------|
A||o--------------------------------o||-------------------------------|
E||----------------------------------||-------------------------------|
Tap to rate this tab
 
# A B C D E F G H I J K L M N O P Q R S T U V W X Y Z