Song name
# A B C D E F G H I J K L M N O P Q R S T U V W X Y Z

Liyana Jasmay - Aku Tak Percaya Cinta chords

Highlighted       Show chord diagrams
Intro


1|---------------------------------------------|
2|---------------------------------------------|
3|---------------------------------------------|
4|--------------------------------1-2-1-3------|
5|--1-2------1-2------2-3------1-2-------------|
6|-2--------2--------3--------2----------------|

or

1|-------------------------------------------------------------------|
2|-------------------------------------------------------------------|
3|--------------------------------------------------9--9-10----------|
4|---7-9-10------7-9-10------7-9-10------7-9-10--10-9--9-10----------|
5|---7-9-10------7-9-10------7-9-10------7-9-10--10-7--7-8-----------|
6|---5-7-8-------5-7-8-------5-7-8-------5-7-8---8-------------------|


C
Hey Hey Hey Hey
G                 A
Aku tak percaya cinta
E                 F
Aku tak percaya cinta
E                 F     G
Aku tak percaya C I N T A

C
Namaku tak perlu disebutkan
A
Dari suara pasti kau kenalku
Dm
Rupaku tak payah dibayangkan
F
Memang kau tak rugi bertemuku

C
Ku selalu lihat dari jauh
A
Kutahu kaupun rasa sesuatu
Dm
Bila kau perlu diriku tiada
F
Biar menjadi misteri hidupmu


C                G         A
Aku tak pernah fikirkan cinta
E                F
Sekadar mengusik kamu
E                F          G
Biarlah cinta yang datang padaku

Aku tak percaya

C               G         A
Aku tahu kau ingin bercinta
E                        F
Janganlah cepat jatuh cinta
E                    F              G
Berkawan dahulu baru ceritanya sempurna
F         G
Wo wo wo wo



C
Hey hey hey hey
G             A
Hey hey hey hey
E             F
Hey hey hey hey
E             F
Hey hey hey hey
G


C
Memang benar kau jadi rebutan
A
ramai gadis yang terpikat denganmu
Dm
tapi aku beza dari semua
F
bukan aku menjual mahal

C
Kerana ku cukup semua
A
hanya tiada hmmm teman lelaki
Dm
sekadar sekadar cuci mata
F
melihat lelaki seperti kamu


C                G         A
Aku tak pernah fikirkan cinta
E                F
Sekadar mengusik kamu
E                F          G
Biarlah cinta yang datang padaku

Aku tak percaya

C               G         A
Aku tahu kau ingin bercinta
E                        F
Janganlah cepat jatuh cinta
E                    F              G
Berkawan dahulu baru ceritanya sempurna
F         G
Wo wo wo wo

C
Hey hey hey hey
G                  A
Aku tak percaya cinta
E                  F
Aku tak percaya cinta
E                F      G
Aku tak percaya C I N T A

Dm            G
    Baru semalam
          Em            A
aku bermimpi bertemu kamu
Dm          G                F
Peliknya rasa lantas kutersedar
Tap to rate this tab
 
# A B C D E F G H I J K L M N O P Q R S T U V W X Y Z