Song name
# A B C D E F G H I J K L M N O P Q R S T U V W X Y Z

Liz Longley - When Youve Got Trouble tab

http://www.lizlongley.com/

Capo 2nd

Intro/Verse

e|--------------------------------------------------|
B|--1------1----1---1----0h1-----1----1----1--------|
G|------0----0----0--0--------0----0-----0---0------|
D|--------------------------------------------------|
A|--0---2-------3--------0----2-------3-------------|
E|--------------------------------------------------|

e|--------------------------------------------------|
B|--0h1---1---1---1----1---1---0---0----------------|
G|------0---0---0---0----0--0----0---0--------------|
D|--------------------------------------------------|
A|--0---2-----3-------------------------------------|
E|--------------0------3-------3--------------------|

Chorus
      F           G            C
e|--------------------------------------------------|
B|----1---1-------3---3--------1-----1---1---1------|
G|------2---2-------0---0---------0----0---0--0-----|
D|--------------------------------------------------|
A|-----------------------------3--2------0----------|
E|----1-----------3---------------------------------|

e|--------------------------------------------------|
B|----1---1-------3---3-----------------------------|
G|------2--2--------0---0---------------------------|
D|--------------------------------------------------|
A|--------------------------------------------------|
E|----1-----------3---------------------------------|

Bridge
e|--------------------------------------------------|
B|---1---1-------0---0----1---1-----3---3-----------|
G|-----2--2---------0--0----2--2------0--0----------|
D|--------------------------------------------------|
A|--------------------------------------------------|
E|---1-----------0--------1---------3---------------|

e|--------------------------------------------------|
B|--1----1------3----3----3---3---------------------|
G|----2---2-------0---0-----0---0-------------------|
D|--------------------------------------------------|
A|--------------------------------------------------|
E|--1-----------3---------3-------------------------|
Tap to rate this tab
# A B C D E F G H I J K L M N O P Q R S T U V W X Y Z