Song name
# A B C D E F G H I J K L M N O P Q R S T U V W X Y Z

Liz Phair - Glory tab

Verse:

d|-0--3--0-0--3--0-----------------------------------------------------------|
A|-1--3--1-0--3--0-0-------0-------------------------------------------------|
F|-2--2--2-0--0--0-0-------2-------------------------------------------------|
C|-2--2--2-2--2--2-0-------0-------------------------------------------------|
G|-0--0--0-2--2--2-2-------0-------------------------------------------------|
D|---------0--0--0-3-------2-------------------------------------------------|

Chorus:

d|---------------------------------------------------------------------------|
A|-------------------------0-------------------------------------------------|
F|-0-------0-------0-------0-------------------------------------------------|
C|-0-------0-------0-------2-------------------------------------------------|
G|-7-------4-------3-------3-------------------------------------------------|
D|-5-------5-------5---------------------------------------------------------|
Tap to rate this tab
 
# A B C D E F G H I J K L M N O P Q R S T U V W X Y Z