Guitaretab - guitar tabs
Song name
# A B C D E F G H I J K L M N O P Q R S T U V W X Y Z

Lizzy Borden - Give Em The Axe tab

Lizzy Borden
Give 'Em The Axe
Tabbed by David Bowles
davidb1234@gmail.com

                                        Pick Slide
E-----------------------------------------------------------------------|
B-----------------------------------------------------------------------|
G-----------------------------------------------------------------------|
D---4--4--4--4--4--4--4--4--4--4--4--4-----------------4--2--4--7--6----|
A---2--2--2--2--2--2--2--2--2--2--2--2-----------------2--0--2--5--4----|
E-----------------------------------------------------------------------|

E-----------------------------------------------------------------------|
B-----------------------------------------------------------------------|
G-----------------------------------------------------------------------|
D------2--4--2--4--7--9-----2--4--2--4--7--6-----2--4--2--4--7--9-------|
A---5--0--2--0--2--5--7--5--0--2--0--2--5--4--5--0--2--0--2--5--7--5----|
E---3--------------------3--------------------3--------------------3----|

[ Tab from: http://www.guitaretab.com/l/lizzy-borden/107687.html ]
                                  repeat many times
E-----------------------------------------------------------------------|
B-----------------------------------------------------------------------|
G-----------------------------------------------------------------------|
D---2-----4--4--4--4--4--4--4--4----------------------------------------|
A---0-----2--2--2--2--2--2--2--2----------------------------------------|
E-----------------------------------------------------------------------|


    "...you play the role..."
E-----------------------------------------------------------------------|
B-----------------------------------------------------------------------|
G-----------------------------------------------------------------------|
D---------------------------------------4--2--4--2--------7--7----------|
A---------------------------------------2--0--2--0--5-----5--5----------|
E---------------------------------------------------3-------------------|


Innocent and all, you play the role
Pretending you don't want it, well I know
Plead with me to stop, I hear your screams
Adrenaline is pumping, you're under attack

Give 'em the axe - a demolition blow
Give 'em the axe - you never, never know

I chase you up and down, you like my style
My palms are sweating ah
My body's on fire
I give it to you all down deep inside
I watch you feeding back
You're under attack

You are everything I am
Can't you see its all the same
It's just a game

Give 'em the axe - a demolition blow
Give 'em the axe - put 'em up or go

Give 'em the axe - a demolition blow
Give 'em the axe - tonight will steal the show
Related for Give Em The Axe tab
Advertisement will be closed in 10 seconds