Song name
# A B C D E F G H I J K L M N O P Q R S T U V W X Y Z

Lizzy Borden - Sins Of The Flesh tab

This is a song I love to play along to so I hope you enjoy it. I never really learned 
whole thing so I'm just tabbing out the main part.

Intro/Chorus
e|-------------------------------------------------------------------------|
B|----------------------------Repeat as necessary--------------------------|
G|-------------------------------------------------------------------------|
D|--9-9-9-9-9---9--11--12---9----9--11--12--------------9--7---5-----------|
A|--7-7-7-7-7---7--9---10---7----7--9---10--10--10--12--7--5---3-----------|
E|--0-0-0-0-0-------------------------------8---8---10---------------------|

Verse 1
e|--------|-------------|
B|--------|-------------|
G|--------|-------------|
D|--9--7--|-10--9-------|
A|--7--5--|-8---7-------|
E|--------|-------------|

That's it for now, Have fun.
Tap to rate this tab
# A B C D E F G H I J K L M N O P Q R S T U V W X Y Z