Song name
# A B C D E F G H I J K L M N O P Q R S T U V W X Y Z

Lizzy Borden - Under Your Skin tab

The intro is a piano but live it's two guitars here's both. listen for the rhythm:

D#-------------------------7----------------------------|
A#----------4-5-7-5-4-5~4-5-5-4~-4-5-7-5-4-5~4-5-7-5-4~-|
F#--------6---------------------4-----------------------|
C#------------------------------------------------------|
G#------------------------------------------------------|
D#------------------------------------------------------|

D#-----------------------------------------------------|
A#-----------------------------------------------------|
F#------------------------4----------------------------|
C#---------1-2-4-2-1-2~1-2-2-1~-1-2-4-2-1-2~1-2-4-2-1~-|
G#-------4---------------------2-----------------------|
D#-----------------------------------------------------|

Verse (1st half vocals only)

D#----------------------------------------------------------|
A#----------------------------------------------------------|
F#----------------------------------------------------------|
C#-------66666666--99999999--22222222-----------------------|
G#-------44444444--77777777--00000000---6~---11-11-99-77-66-|
D#--------------------------------------4~---9--9--77-55-44-|
                                             .............. p.m.
Chorus

D#----------------------------------------------------------|
A#----------------------------------------------------------|
F#----------------------------------------------------------|
C#----6---9-9-9----2-2----4-4-4-4-4-----6--9-9-9---2-2------|
G#----4---7-7-7----0-0----2-2-2-2-2-----4--7-7-7---0-0------|
D#----Repeat 2x---------------------------------------------|

C#------------------------------6~~Sustain-----------------------|
G#-11-11---9-9---7-7---6-6------4~~Sustain-----------------------|
D#--9-9----7-7---5-5---4-4---------------------------------------|
    . . . . . . . . . . . . p.m.

the rhythm is pretty much the same throughout the song. ill post the solo when i figure it out.
Tap to rate this tab
# A B C D E F G H I J K L M N O P Q R S T U V W X Y Z