Song name
# A B C D E F G H I J K L M N O P Q R S T U V W X Y Z

Ll Cool J - Love U Better tab

Artist: LLcoolJ
Song : Love U Better
Album: 10
Tabbed by kamusiq@hotmail.com

       VERSE
E|--0/0-0--0/0-0--0/0-0--| 
B|--1/3-1--1/3-1--1/3-1--|
G|-----------------------|  Repeat this during the verse.
D|-----------------------|
A|-----------------------|
E|-----------------------|

      CHORUS
E|----------0--------| 
B|--2/5--7-----1--3--|
G|-------------------|  Repeat this during the chorous.
D|-------------------|
A|-------------------|
E|-------------------|

 Questions or comments email me at kamusiq@hotmail.com
Tap to rate this tab
 
# A B C D E F G H I J K L M N O P Q R S T U V W X Y Z