Song name
# A B C D E F G H I J K L M N O P Q R S T U V W X Y Z

Lmfao - Shots tab

this song is not on guitar but you can have fun screwing around with it. 

-------------------------|-------------------------|
-------------------------|-------------------------|
--5-----8-7-5------------|--5-5--8-8-7-5-----------|
--5-----8-7-5------------|--5-5--8-8-7-5-----------| x2
--3-----6-5-3------------|--3-3--6-6-5-3-----------|
-------------------------|-------------------------|

-------------------------|-------------------------|
-------------------------|-------------------------|
--5-----8-7-5------------|--5-5--8-8-7-5-----------|
-------------------------|-------------------------| x2
-------------------------|-------------------------|
-------------------------|-------------------------| 

during SHOTS SHOTS SHOTS!!!!
-------------------------|
-------------------------|
--5----------------------| listen for beat
--5----------------------|
--3----------------------|
-------------------------|

the song uses these notes over and over again, just listen to know when to play what. 
Tap to rate this tab
# A B C D E F G H I J K L M N O P Q R S T U V W X Y Z