Song name
# A B C D E F G H I J K L M N O P Q R S T U V W X Y Z

Lmfao - Shots tab

The whole song is pretty much the same thing over and over...


----------------------------------|
----------------------------------|
----------------------------------|
----------------------------------|
---7--10--9--7--777--1010--99--7--|
---0-- 0--0--0--000-- 0 0--00--0--|


----------------------------------|
----------------------------------|
----------------------------------|
----------------------------------|
7-7-101010-9-99-55-9-5-7----------|
0-0- 0 0 0-0-00-00-0-0-0----------|

Just Play it along with the song, and figure out how many times you need to play it, its 
really simple! Have Fun!
Tap to rate this tab
 
# A B C D E F G H I J K L M N O P Q R S T U V W X Y Z