Guitaretab - guitar tabs
Song name
# A B C D E F G H I J K L M N O P Q R S T U V W X Y Z

Lmfao - Sexy And I Know It tab

Hey Everyone, it's Shreddguitarist here.
Just a quick note: Obviously this song is not played
on guitar but hey these are the right notes and
it still sounds awesome. Just work out the timing and
how many times each part is repeated by listening to the song.


Intro

e|--------------------------------------------------------------|
B|--------------------------------------------------------------|
G|--------------------------------------------------------------|
D|---------------------------------------|   E-22--~ 2's not 22-|
A|--------2-----------------------------------------------------|
E|-22-2-5-------------------------------------------------------|

This repeats until the singing starts.
Then play...
[ Tab from: http://www.guitaretab.com/l/lmfao/301573.html ]
e|---------------------------------------|
B|---------------------------------------|
G|---------------------------------------|
D|-------------------4-------------------|
A|----------2----------------------------|
E|-2-2-2--5---2-2-2-2--------------------|

This part is used until repeatedly until
just after the second "I'm Sexy And I Know It"
Which is when it goes-

e|--3-3-3-6-8-3-3-3-3-15-----------------|
B|---------------------------------------|
G|---------------------------------------|
D|---------------------------------------|
A|---------------------------------------|
E|---------------------------------------|

Which repeats until the "I'm sexy and I know it"
after the "Wiggle yeah. It then goes back to the Part
One until it starts the "Girl look at that body" which
is when it goes back too Part Two until that finishes and
it starts Part One which is slightly palm muted until the
song finishes.
 Enjoy
     -Shreddguitarist
Related for Sexy And I Know It tab
×
Best way to learn
"Sexy And I Know It"