Song name
# A B C D E F G H I J K L M N O P Q R S T U V W X Y Z

Lmnt - Hey Juliet tab

This riff is used throughout the song always during the verse and chorus


   D    D A    A G
e----------------------------|
b----------------------------|
g--7----7--------------------|
d--7----7-7----7-5-----------| Then to get that dj rubbing sound you
a--5----5-7----7-5-----------|
E---------5----5-3-----------| can rub your strings with the side of your hand


Pre-Chorus

  A     D        A      D
e------------------------------|
b------------------------------|
g------------7--------------7--|  This isn't perfect but it's more or less
d-----7----7----------7---7----|  accurate
a---7----5----------7---5------|
E-5---------------5------------|

Bridge

   D   A    G    A
e------------------------------|
b------------------------------|  X2
g--7---------------------------|
d--7----7----5----5------------|  Timing's tricky listen to the song for it
a--5----7----5----5------------|
E-------5----3----7------------|


After the bridge everything slides up one fret (key change)

Main Riff becomes:
  D#    D#A#   A#G#
e----------------------------|
b----------------------------|
g--8----8--------------------|
d--8----8-8----8-6-----------|
a--6----6-8----8-6-----------|
E---------6----6-4-----------|


Not Perfect but the main riff is definitely right, and you play that through most of the 
song sooo hope you enjoy it.
Tap to rate this tab
 
# A B C D E F G H I J K L M N O P Q R S T U V W X Y Z