Song name
# A B C D E F G H I J K L M N O P Q R S T U V W X Y Z

Lmnt - Its Just You tab

Help us improve GuitareTab! Take a short survey!
So I recently realized I love Kim Possible.
She's too awesome.
The show's funny, and amusing, I don't know why I didn't see it before.
There's also the very nice, "subtle" tention between Shego and Kim
(don't pretend you don't know what I'm talking about: the pet names, the landing on top 
each other whenever they fight, etc.)

Anyway, the song itself is kind of gross, but I love the solo, and after finding nothing 
lyrics for it, I set on a quest to tab it out meself.
So here it is.

Verse/Chorus/Rhythm guitar during solo/Anything else you might think of
e-----------------------------------------------------------------|
B-----------------------------------------------------------------|
G-4-4-4-4-4-4-4-4-------------------------------------------------|
D-4-4-4-4-4-4-4-4-4-4-4-4-4-4-4-4-6-6-6-6-6-6-6-6-2-2-2-2-2-2-2-2-|
A-2-2-2-2-2-2-2-2-4-4-4-4-4-4-4-4-6-6-6-6-6-6-6-6-2-2-2-2-2-2-2-2-|
E-----------------2-2-2-2-2-2-2-2-4-4-4-4-4-4-4-4-0-0-0-0-0-0-0-0-|

Solo
e----------------------------------------------------------11---------------------12-0-11-0-9-0-7/23-|
B--------------------------------------------------------------------11------------------------------|
G------------------------------------8-8-8-8-8-8------8-11------8-11---------8-11--------------------|
D-9-11-9---9-11-8---8-9-11-9-9-9-9-9-------------9-11------9-11---------9-11-------------------------|
A--------9--------9----------------------------------------------------------------------------------|
E----------------------------------------------------------------------------------------------------|
Related for Its Just You tab