Song name
# A B C D E F G H I J K L M N O P Q R S T U V W X Y Z

Lo-cash Ninjas - Lo-cash Dirty Beat tab

-------------------------------------------------------------------------------
                             Lo-Ca$h Dirty Beat - Lo-Ca$h Ninjas
-------------------------------------------------------------------------------
Tabbed by: s4t2p0
E-mail:

Tuning: standard

e|--------------------------------------------------------------------------|
B|--------------------------------------------------------------------------|
G|--------------------------------------------------------------------------|
D|--------------------------------------------------------------------------|
A|---5-9-7-5---5---4--------------------------------------------------------|
E|-7---------3---2----------------------------------------------------------|

I also like playing it like this.

e|----------------------------------------------------------------------------|
B|----------------------------------------------------------------------------|
G|----------------------------------------------------------------------------|
D|----------------------------------------------------------------------------|
A|---55-7\99-7-5----55----44--------------------------------------------------|
E|-77------------33----22-----------------------------------------------------|

************************************

| /   slide up
| \   slide down
| h   hammer-on
| p   pull-off
| ~   vibrato
| +   harmonic
| x   Mute note
| b   Bend
| pb  Pre-bend
| br  Bend release
| pbr Pre-bend release
| brb Bend release bend

************************************
Tap to rate this tab
# A B C D E F G H I J K L M N O P Q R S T U V W X Y Z