Guitaretab - guitar tabs
Song name
# A B C D E F G H I J K L M N O P Q R S T U V W X Y Z

Lo Tel - Crucifix tab

Song : Crucifix
Artist : Lo-Tel
Album : Planet Of The Stereos

Tuning: Standard

Intro and Verse

"You Wear That Crucifix.."

e  -----------------------------------------------|
b  -----------------------------------------------|
g  -----------------------------------------------|(palm muted during verse)
d  -----------------------------------------------|
a  --------2-----------4--2--------2-----------4--|
E  --2--4-----4--2--4--------2--4-----4--2--4-----|


"You're Twice The Man That.."
[ Tab from: ]
e  ----------------------------------------------|
b  ----------------------------------------------|
g  ----------------------------------------------|(palm mute E chord and don't palm mute
d  --------2-2-2-2-2------------------2-2-2------|the single notes)
a  -muted--2-2-2-2-2--4-----4--muted--2-2-2-etc--|
E  --------0-0-0-0-0-----2------------0-0-0------|


"And I Lie Awake, Thinking About.."

e  ---------------------------------------------|
b  ---------------------------------------------|
g  ------------4--------------------------------|
d  ---2--4--6--4--------------------------------|
a  ---2--4--6--2--------------------------------|
E  ---0--2--4-----------------------------------|
Related for Crucifix tab