Song name
# A B C D E F G H I J K L M N O P Q R S T U V W X Y Z

Lobo - How Can I Tell Her tab

Tabbed by: Fadley Fauzi
Email: fadleyfauzi@gmail.com

Tuning: E A D G B e

Intro

  D                   D
e|--------------0---|--------------------|
B|------3-----------|-----3-------3------|
G|----2---2---2---2-|---2---2---2---2----| 2x
D|--0-------0-------|-0-------0----------|
A|------------------|--------------------|
E|------------------|--------------------|


  D                   A                   G                  D
e|------------------|------------------|------------------|-------------------|
B|------3-------3---|------2-------2---|------3-------3---|------3-------3----|
G|----2---2---2---2-|----2---2---2---2-|----0---0---0---0-|----2---2---2---2--|
D|--0-------0-------|------------------|------------------|--0-------0--------|
A|------------------|--0-------0-------|------------------|-------------------|
E|------------------|------------------|--3-------3-------|-------------------|
       She knows...


    G                  D                  E                  A
e|------------------|------------------|------0-------0---|---------------------|
B|------3-------3---|------3-------3---|------------------|------2-------2------|
G|----0---0---0---0-|----2---2---2---2-|----1---1---1---1-|----2---2---2---2----|
D|------------------|--0-------0-------|------------------|---------------------|
A|------------------|------------------|------------------|--0-------0----------|
E|--3-------3-------|------------------|--0-------0-------|---------------------|


    G                  D
e|------------------|------------------|
B|------3-------3---|------3-------3---|
G|----0---0---0---0-|----2---2---2---2-| 2x
D|------------------|--0-------0-------|
A|------------------|------------------|
E|--3-------3-------|------------------|


    D                   D
e|------------------|------------------|
B|------3-------3---|---3--------------|
G|----2---2---2---2-|---2--------------|
D|--0-------0-------|---0--------------|
A|------------------|------------------|
E|------------------|------------------|


Verse 2 : Strum chords


Chorus:

    G       A          D       D        
e|------------------|---------------------|
B|------3-------2---|------3-------3------|
G|----0---0---2---2-|----2---2---2---2----| 2x
D|------------------|--0-------0----------|
A|----------0-------|---------------------|
E|--3---------------|---------------------|
   How Can I...

    G       A          D       Bm                 A
e|------------------|--------------2-------2---|-------------------|
B|------3-------2---|------3-----3---3---3---3-|------2-------2----|
G|----0---0---2---2-|----2---2-----------------|----2---2---2---2--|
D|------------------|--0-----------------------|-------------------|
A|----------0-------|----------2-------2-------|--0-------0--------|
E|--3---------------|--------------------------|-------------------|
   Everythings seems...


    G       A           G         A          D      
e|-------------------|--------------------|--------------------|
B|------3-------2----|------3---------2---|------3-------3-----|
G|----0---0---2---2--|----0---0-----2---2-|----2---2---2---2---|
D|-------------------|--------------------|--0-------0-------0-|
A|----------0--------|------------0-------|--------------------|
E|--3----------------|--3-----------------|--------------------|
   So girl...


*Repeat verse 3

*Chorus

Tap to rate this tab
# A B C D E F G H I J K L M N O P Q R S T U V W X Y Z