Song name
# A B C D E F G H I J K L M N O P Q R S T U V W X Y Z

Lobster - Keep It Brutal tab

Artist: Lobster
Song: Keep It Brutal
Myspace: http://www.myspace.com/wearelobsters

Tabbed by Henrique Fernandes

e|-------------------------------------------------|              -|
B|----10-----------10-----------10-----------10----|               |
G|-------12-10--------12-10--------12-10--------12-|               |
D|-------------------------------------------------|               |
A|-------------------------------------------------|               |
E|-12----------12-----------12------------12-------|               |
                                                                   |
e|---------------------------------------------|                   |
B|------10--------10--------10--------10-10-10-|                   |
G|-9-10----7-9-10----7-9-10----7-9-10----------|                   |
D|---------------------------------------------|                   |
A|---------------------------------------------|                   |
E|---------------------------------------------|                   |
                                                                   | 3x
e|------------------------------|                                  |
B|---8-----8-----8-----8----8---|                                  |
G|-----7-----7-----7----7-----7-|                                  |
D|-5-----5-----5-----5----5-----|                                  |
A|------------------------------|                                  |
E|------------------------------|                                  |
                                                                   |
e|--------------------------------|                                |
B|--------------------------------|                                |
G|---7-----7-----7---6-----6----6-|                                |
D|-----7-----7---------6-----6----|                                |
A|-5-----5-----5------------------|                                |
E|-----------------5-----5-----5--|                               _|

e|------------------------------------------------------------------|
B|------------------------------------------------------------------|
G|------------------------------------------------------------------| 4x
D|------------------------------------------------------------------|
A|---------------8-10-10-10-10-10-8---------------------------------|
E|-8-8-8-8-8-6-8--------------------8-6-0-0-0-0-0-0-3p0-5p0-3p0-3/8-|

e|--------------------------------------|
B|--------------------------------------|
G|--------------------------------------|
D|--------------------------------------|
A|---------------8-10-10-10-10-10-8-----|
E|-8-8-8-8-8-6-8--------------------8-6-|

e|-----------------------------------------------------------|
B|-----------------------------------------------------------|
G|---------------8-8-8-8-8-8-8-------------------------------|
D|-5-5-5-5-5-5-5-8-8-8-8-8-8-8-8-8-8-8-8-8-8-8-8-8-8-8-8-8-8-| 4x
A|-5-5-5-5-5-5-5-6-6-6-6-6-6-6-8-8-8-8-8-8-8-8-8-8-8-8-8-8-8-|
E|-3-3-3-3-3-3-3---------------6-6-6-6-6-6-6-6-6-6-6-6-6-6-6-|

e|------------------------------------------------------------------------|
B|------------------------------------------------------------------------|
G|---------------8-8-8-8-8-8-8--------------------------------------------|
D|-5-5-5-5-5-5-5-8-8-8-8-8-8-8--------------------------------------------|
A|-5-5-5-5-5-5-5-6-6-6-6-6-6-6---------------------8-10-10-10-10-10-8-----|
E|-3-3-3-3-3-3-3---------------8-8---8-8-8-8-8-6-8--------------------8-6-|

e|------------------------------------------------------------------|
B|------------------------------------------------------------------|
G|------------------------------------------------------------------|
D|------------------------------------------------------------------|
A|-------------------------------------------8-10-10-10-10-10-8-----|
E|-0-0-0-0-0-0-3p0-5p0-3p0-3/8-8-8-8-8-8-6-8--------------------8-6-|

e|----------------------------------------------------------|
B|----------------------------------------------------------|
G|----------------------------------------------------------|
D|---14---14---14---14--------------------------------------|
A|-----------------------------------8-10-10-10-10-10-8-----|
E|-0----0----0----0----8-8-8-8-8-6-8--------------------8-6-|

e|------------------------------------------------------------------|
B|------------------------------------------------------------------|
G|------------------------------------------------------------------|
D|------------------------------------------------------------------|
A|-------------------------------------------8-10-10-10-10-10-8-----|
E|-0-0-0-0-0-0-3p0-5p0-3p0-3/8-8-8-8-8-8-6-8--------------------8-6-|

e|----------------------------------------------------|
B|----10-----------10-----------10-----------10-------|
G|-------12-10--------12-10--------12-10--------12-10-| 3x
D|----------------------------------------------------|
A|----------------------------------------------------|
E|-12----------12-----------12------------12----------|

e|--------------------------------------------------|
B|----10-----------10-------------10-------10-------|
G|-------12-10--------12-10----12-------12----12-10-|
D|--------------------------------------------------|
A|--------------------------------------------------|
E|-12----------12-----------12-------12-------------|
Tap to rate this tab
 
# A B C D E F G H I J K L M N O P Q R S T U V W X Y Z