Song name
# A B C D E F G H I J K L M N O P Q R S T U V W X Y Z

Local H - Simple Pleas tab

Saw a few reguest and i knew it so here it goes.

Local H Simple Pleas off the 12 Angry Months Album


Simple Pleas

e------------------------------5-|
B------------------------------5-|
G------------------------------4-|
D----------------------------9-7-|
A--9-11-11--9-11--9-11--9-11---7-|
E--0--0--0--0--0--0--0--0--0---5-|

e------------------------|
B------------------------|
G------------------------|
D--7-6-4-2-4-4-4-2-2-2-2-|
A--7-6-4-2-4-4-4-2-2-2-2-|
E--5-4-2-0-2-2-2-0-0-0-0-|
Tap to rate this tab
# A B C D E F G H I J K L M N O P Q R S T U V W X Y Z