Song name
# A B C D E F G H I J K L M N O P Q R S T U V W X Y Z

Local H - President Forever Acoustic tab

tab by braim
scott lucas-president forever acoustic

intro

    Amin            G     D
e---0-0-0-0-0-0-----3-----2-2-2-0-0-2------|
b---1-1-1-1-1-1-----3-----3-3-3-3-3-3------|
g---2-2-2-0-0-2-----0-----2-2-2-2-2-2-...--|
d---2-2-2-0-0-2-...-0-...-0-0-0-0-0-0------|
a---0-0-0-0-0-0-----2----------------------|
e---0-0-0-0-0-0-----3----------------------|


       G          Amin
"i'm president forever
   G
i'm head of state and here to stay
   D
the officer elect all of your life
        Amin
i'm the leader till the end of your days

i'm president forever
accountable to no one no more
daddy look at me, i'm a big boy now
a brat to the manor born

-------------------------------------------------------|
-------------------------------------------------------|
---5-5-5-5-5---7-7-7-7-7----5-5-5-5-5----7-7-7-7-7-7-7-|
---5-5-5-5-5..-7-7-7-7-7-..-5-5-5-5-5-..-7-7-7-7-7-7-7-|
---3-3-3-3-3---5-5-5-5-5----3-3-3-3-3----5-5-5-5-5-5-5-|
----------------------------3-3-3-3-3------------5-5-5-|

who wants to go back to war with iraq
who wants to shoot a sling shot full of rocks of crack
who wants to go and give the french their fuckin' statue back
i want to take it all

i'm president forever
america, you found your man
if we can all agree on this one thing
you know you'll never have to vote again

i'm president forever
i finally get to do it my way
i wanna take a ride in airforce one now

laugh in the face of the national debt
i wanna build the free world and make them pay back rent
i wanna take the statue back from the fuckin' french
dad, i'll make you proud

i'm president forever

Amin                                    G
piss up and down the walls of the oval office
D                                       Amin
pal around with the boys in the secret service
calling my connection for a party at camp david
D
the first lady's not invited
Amin
the first lady's not invited

i'm president forever
i'm president forever

who wants to go back to war with iraq
who wants to shoot a slingshot full of rocks of crack
who wants to go and give the french their fuckin' statue back
i wanna take it all

laugh in the face of the national debt (take it all, take it all)
i wanna build the free world and make them pay back rent (take it all, take it all)
i wanna take the statue back from the fuckin' french (take it all, take it all)
dad, i'll make you proud (take it all, take it all)

i'm president forever "

SCOTT RULZ
Tap to rate this tab
 
# A B C D E F G H I J K L M N O P Q R S T U V W X Y Z