Song name
# A B C D E F G H I J K L M N O P Q R S T U V W X Y Z

Local H - Mellowed tab

tabbed by braim
its once again from scotts acoustic session, it differs slighty from the album version...

open chords used:

G  C  F  Em

b: bend
/: slide


intro:

---------------------------------------|
---------------------------------------|
---------------------------------------|
---------------------------------------|
------2-------3------2-------3---------|
--0-1-----0-1----0-1-----0-1-----------|


Tunnel vision is slowly setting in.
Blocking out what I should be letting in

play the first part palm muted
------------------------------------------------|
------------------------------------------------|
------------------------555555555555------------|
555555333333333333333333555555555555555555555---|  x2
555555333333333333333333333333333333555555555---|
333333111111111111111111------------333333333---|

11 years I've seen through alcoholic eyes
Nothing here at all but lows disguised as highs

-------------------------------------------------|
-------------------------------------------------|
-555555555555555555------------------------------|
-555555555555555555---3333333333333333333333333--|
-333333333333333333---3333333333333333333333333--|
----------------------1111111111111111111111111--|

Days I don't remember now Fading in and blacking out

--------------------------------------------------------|
--------------------------------------------------------|
-555555555555555555555555555000000000000000000000-------|
-555555555555555555555555555555555555555555555555-------|
-333333333333333333333333333555555555555555555555-------|
----------------------------333333333333333333333-------|

Spiraling off and spiraling down and down and then


-------------------------|
-------------------------|
-000000000000------------|
-222222222222------------|
-222222222222------------|
-111111111111------------|

It's on again

   Em
And off again

     C
I've mellowed, but it's taken so much time.

intro..

You never needed the fake that I was then
And no way would I wish him on you now

F             G
I'm so fucked up
               F                              G
Played out and pacified and completely compromised
              F                        G
Nothing left inside, but memories of lies
C                       F
Days I don't remember now
                         C
Are fading in and filing out
                            G
Falling off and spiraling down and down and then

F                     Em
It's on again, put off again
    C
I'm sorry but it doesn't matter now.

little solo

-0--0----0--0--0----0---0--0--0--------------|
-0--0----0--0--0----0---0--0--0--------------|
-4--4---b4--2--2---b2---0--0--0---/999979----|
-5--5---b5--3--3---b3---2--2--2---/999979----|
-5--5---b5--3--3---b3---2--2--2---/777777----|
-3--3---b3--1--1---b1---o--o--o--------------|


11 years I've seen through alcoholic eyes
Nothing here at all but lows disguised as highs
Days I don't remember now
Fading in and blacking out
Falling off and spiraling down and down and then.
It's on again and off again
I've mellowed, but it's taken so much time.

fin
Tap to rate this tab
# A B C D E F G H I J K L M N O P Q R S T U V W X Y Z