Guitaretab - guitar tabs
Song name
# A B C D E F G H I J K L M N O P Q R S T U V W X Y Z

Local H - 5th Avenue Crazy tab

"Fifth Avenue Crazy"
By: Local H
Album: 'Here Comes The Zoo' - 2002

Guitar is tuned to 'drop d'

Very simple song but, fun to play :)


Intro/Verse
e|--------------------------------------------------------------|
B|--------------------------------------------------------------|
G|--------------------------------------------------------------|
D|---5-5--3-0---0-3-0---5-5--3-0----0-3-0-----------------------|
A|---5-5--3-0---0-3-0---5-5--3-0----0-3-0-----------------------|
D|---5-5--3-0---0-3-0---5-5--3-0----0-3-0-----------------------|

[ Tab from: http://www.guitaretab.com/l/local-h/181955.html ]
Chorus
e|--------------------------------------------------------------|
B|--------------------------------------------------------------|
G|--------------------------------------------------------------|
D|---3-3-3--3-3-3----3/5-5-5--5-5-5----5/7-7-7--7-7-7-----------|
A|---3-3-3--3-3-3----3/5-5-5--5-5-5----5/7-7-7--7-7-7-----------|
D|---3-3-3--3-3-3----3/5-5-5--5-5-5----5/7-7-7--7-7-7-----------|  x4


Breakdown
e|--------------------------------------------------------------|
B|---------7--7--7--7--b7--b7--b7-------------------------------|
G|-------9--9--9--9--b9--b9--b9---------------------------------|
D|--------------------------------------------------------------|
A|--------------------------------------------------------------|
D|--------------------------------------------------------------|
Related for 5th Avenue Crazy tab
Advertisement will be closed in 10 seconds