Song name
# A B C D E F G H I J K L M N O P Q R S T U V W X Y Z

Local H - Fritzs Corner tab

tune your guitar to drop D, then tune down 1/2 step
tabbed by braim::Scott rulz

Eb--(2)--(2)---------------------------|
Bb--(3)--(3)---------------------------|
Gb--(2)--(2)---------------------------|
Db---0----0----------0-0-------0-0-----|
Ab---0----0--repeat--0-0/15b---0-0-----|
Db---0----0----------0-0-------0-0-----|
        "I'm not mad, I'm just bored"

Eb---------------------------------------------------------------3-3--|
Bb---7-7-7-x-x-15-15-15-x-x-10-10-10-x-x-8-8-8-------------------2-2--|
Gb---7-7-7-x-x-15-15-15-x-x-10-10-10-x-x-8-8-8-repeat------------3-3--|
Db---7-7-7-x-x-15-15-15-x-x-10-10-10-x-x-8-8-8--------ends with--0-0--|
Ab---5-5-5-x-x-13-13-13-x-x-8--8--8--x-x-6-6-6-------------------0-0--|
Db---0-0-0-x-x----------x-x----------x-x-------------------------0-0--|
   "mess around with you"


Eb--3-3-3-x-x-----------------------------|
Bb--2-2-2-x-x-3-3-3-x-x-------------------|
Gb--3-0-3-x-x-3-3-3-x-x-5-5-5-x-x-3-3-3---|
Db--0-0-0-x-x-3-3-3-x-x-3-3-3-x-x-1-1-1---|
Ab--0-0-0-x-x-1-1-1-x-x-3-3-3-x-x-1-1-1---|
Db--0-0-0-x-x-----------3-3-3-x-x-1-1-1---|
    "see me now a little bit clearer"


Eb----------------------------------------------------|
Bb-------------------------10-10--x-x-x-8-8-8-x-x-x---|
Gb--7-7-x-x-x--------------10-10--x-x-x-8-8-8-x-x-x---|
Db--7-7-x-x-x--8-8--x-x-x--10-10--x-x-x-8-8-8-x-x-x---|
Ab--5-5-x-x-x--8-8--x-x-x--8--8---x-x-x-6-6-6-x-x-x---|
DB--0-0-x-x-x--8-8--x-x-x-----------------------------|
      "I'm always ashamed
          and that's the way to be"

I'm not mad
I'm just bored
And everything I do is only because
There's nothing much else for me to do
And that includes you
Mess around with you

Piss away potential
Everyday is a waste
And I'm wasted everyday
There's nothing much else for me to do
And that includes you - and that includes you
Mess around with you

You see me now a little bit clearer
the face I make when I'm looking in the mirror

- it gives me away
the things that I say

You think you know where I'm coming from
the words I say when I'm playing dumb

It gives me away
It gives me away

One more thing before we go
I've stepped over everyone I know
Everyone I know

You see me now a little bit clearer
The face I make when I'm looking in the mirror

It gives me away

You think you know where I'm coming from
The words I say when I'm playing dumb

it gives me away
it gives me away
it gives me away

I'm always ashamed

I'm always ashamed
and that's the way to be
Tap to rate this tab
# A B C D E F G H I J K L M N O P Q R S T U V W X Y Z