Song name
# A B C D E F G H I J K L M N O P Q R S T U V W X Y Z

Local H - High Fivin Mf tab

Local H 
"High Fiving MF"  
As Good As Dead
Tunning - Db,Ab,Db,Gb,Bb,Eb (Low to High just in case your a new player)

Intro - Drums (The Guitar Part is played somehow either using feedback or an effect of some sort I've seen him play it a different way live everytime I've seen them.)

Verse (Riff is played open then palm muted when singing starts) 

Eb--------------------------------------------------------------
Bb--------------------------------------------------------------
Gb--------------------------------------------------------------
Db--5-5-3-3-0-0-3-3-5-5--5---5-3-0-5-5-3-3-0-3-5-5--------------
Ab--5-5-3-3-0-0-3-3-5-5--5---5-3-0-5-5-3-3-0-3-5-5--------------
Db--5-5-3-3-0-0-3-3-5-5--5---5-3-0-5-5-3-3-0-3-5-5--------------

(Mess Around with the timing on this part here are the right notes)

Eb--------------------------------------
Bb--------------------------------------
Gb--7-7-7-7-7-7-7-7-7-7-7-7-7-7-7-7-----
Db--0-0---------------------------------
Ab--0-0---------------------------------
Db--0-0---------------------------------

This riff 4x

Eb-------------------------------------------------------------
Bb-------------------------------------------------------------
Gb-------------------------------------------------------------
Db--12-3-3-3-3-3-3-3-3-3-3-3-3-3-0-0-0-0-0-0-0-0-0-0-0-0-0-----
Ab--12-3-3-3-3-3-3-3-3-3-3-3-3-3-0-0-0-0-0-0-0-0-0-0-0-0-0-----
Db--12-3-3-3-3-3-3-3-3-3-3-3-3-3-0-0-0-0-0-0-0-0-0-0-0-0-0-----

Outro  ("You High Fiving MOther Fucker..You High Fivinf Mother Fucker")
          
  17 times                                         ENd with THis
Eb----------------------------------------------------------------
Bb----------------------------------------------------------------
Gb----------------------------------------------------------------
Db--5-5-3-3-0-0-3-3-5-5-3-3-0-0-3-3------------5-5-5-3-3-3-0-0----
Ab--5-5-3-3-0-0-3-3-5-5-3-3-0-0-3-3------------5-5-5-3-3-3-0-0----
Db--5-5-3-3-0-0-3-3-5-5-3-3-0-0-3-3------------5-5-5-3-3-3-0-0----

Thats it enjoy, If you have any corrections don't mail em to me cuz I don't care and this tab is right, so enjoy, peace
Tap to rate this tab
 
# A B C D E F G H I J K L M N O P Q R S T U V W X Y Z