Song name
# A B C D E F G H I J K L M N O P Q R S T U V W X Y Z

Local H - Bound For The Floor tab

Artist: Local H
Song: Bound For The Floor
Album: As Good As Dead 

Intro/Verse/Outro

      E  E  E  E  E  E  E  E     E  E  E  E  E  E  E  E   
E||---------------------------|--------------------------|
B||---------------------------|--------------------------|
G||*--4-----4-----4--4-----4--|-----4--4-----4--4--4-----|
D||*--2-----2-----2--2-----2--|-----2--2-----2--2--2-----|
A||---0-----0-----0--0-----3--|-----3--3-----3--3--3-----|
E||---------------------------|--------------------------|


  E  E  E  E  E  E  E  E     E  E  E  E  E  E  E  E     
--------------------------|---------------------------||
--------------------------|---------------------------||
--4-----4-----4--4-----4--|-----4--4--4--5--5--4-----*||
--0-----0-----0--0-----0--|-----0--0--0--0--0--0-----*||
--2-----2-----2--2-----5--|-----5--5--5--5--5--5------||
--3-----3-----3--3--------|---------------------------||


Chorus
   Asus2                   C                              
   E     E  E  E  E  E  E  E     E  E  E  E  E  E  E  E   
------------------------------|--------------------------|
---0-----L--0--L--0--0--0--1--|--L--1--1--L--1--1--1--1--|
*--2-----L--2--L--2--2--2--0--|--L--0--0--L--0--0--0--0--|
*--2-----L--2--L--2--2--2--2--|--L--2--2--L--2--2--2--2--|
---0-----L--0--L--0--0--0--3--|--L--3--3--L--3--3--3--3--|
------------------------------|--------------------------|


  Gm                   D                                
  E  E  E  E  E  E  E  E     E  E  E  E  E  E  E  E     
--3--L--3--L--3--3--3--2--|--L--2--2--L--2--2--2--2---||
--3--L--3--L--3--3--3--3--|--L--3--3--L--3--3--3--3---||
--0--L--0--L--0--0--0--2--|--L--2--2--L--2--2--2--2--*||
--0--L--0--L--0--0--0--0--|--L--0--0--L--0--0--0--0--*||
--2--L--2--L--2--2--2-----|---------------------------||
--3--L--3--L--3--3--3-----|---------------------------||




Duration Legend
---------------
E - 8th

Tablature Legend
----------------
L - tied note

Tap to rate this tab
# A B C D E F G H I J K L M N O P Q R S T U V W X Y Z