Song name
# A B C D E F G H I J K L M N O P Q R S T U V W X Y Z

Local H - Deep Cut tab

1/2 step down

Verse
|---------------------------------|
|---------------------------------|
|o-------------------------------o|
|o--4-4-4-4-4-4-4-4-4-4-5-5-5-5--o|
|---4-4-4-4-4-4-4-4-4-4-5-5-5-5---|
|---2-2-0-2-2-0-2-2-0-2-3-3-3-3---|

Chorus
|---------------|
|---------------|
|---------------|
|---4--2--7-5---|
|---4--2--7-5---|
|-- 2--0--5-3---|

Outro
|------------------------------------------------------------|
|------------------------------------------------------------|
|------------------------------------------------------------|
|---4-4-4-4-5-5-5-5--4-4-4-4-5-5-5-5--4-4-5--4-4-5--4-4-4-4--|
|---4-4-4-4----------4-4-4-4----------4-4----4-4----4-4-4-4--|
|---2-2-0-2----------2-2-0-2----------2-2----2-2----2-2-0-2--|
Tap to rate this tab
# A B C D E F G H I J K L M N O P Q R S T U V W X Y Z