Song name
# A B C D E F G H I J K L M N O P Q R S T U V W X Y Z

Local H - Lucky Time tab

Lucky Time
Local H - Pack Up the Cats


eb--------------------------------------------------------|
Bb-------------10--------------------------10-------------|
Gb---------11------11-----11------------10----10----10----|
Db------12------------12-------------12----------12-------|
Ab---12---------------------------12----------------------|
Eb---10---------------------------10----------------------|


---------------------------------------|
---------5------------------5----------|
-------6---6---6----------6---6--------|
-----7-------7----------7-------7------|
---7------------------7----------------|
---5------------------5----------------|

eb---5---2---1---3---|
Bb---5---2---1---3---|
Gb---6---3---2---4---|
Db---7---4---3---5---|
Ab---7---4---3---5---|
Eb---5---2---1---3---|

"...such a lucky time...."

solo

eb-----5->8-10-9---12-10-7--8-10-9---12-10-9---8--7---5---
Tap to rate this tab
 
# A B C D E F G H I J K L M N O P Q R S T U V W X Y Z