Song name
# A B C D E F G H I J K L M N O P Q R S T U V W X Y Z

Local H - Lead Pipe Cinch tab

"Lead Pipe Cinch"

Standard down half step tuning

Riff 1:

  E          F#m11      A                Asus2
-----0----0-----0----0-----0-----0----0--0-0--0---|
-----0----0-----0----0-----2-----2----2--0-0--0---|
--1--1--1-1--2--2--2-2--2--2-----2----2--2-2--2---|
--2--2--2----4--4--4----2--2--2-----2------2--2---|
--2--2--2----4--4--4----0--0--0-----0---------0---|
--------------------------------------------------| (4x)

then:

  Cm         Bsus4           Asus2                    Cm         Bsus4
--0--0--0-0--0--0--0-0--0--0----0---0--0--0-0--0-0-0--0--0--0-0--0--0--0-0--|
--5--5--5-5--0--0--0-0--0--0----0---0--0--0-0--0-0-0--5--5--5-5--0--0--0-0--|
--6--6--6-6--4--4--4-4--2--2--2---2----2--2-2--2-2-2--6--6--6-6--4--4--4-4--|
--6--6--6-6--4--4--4-4--2--2--2---2----2--2-2--2-2-2--6--6--6-6--4--4--4-4--|
--4--4--4-4--2--2--2-2--0--0--0---0----0--0-0--0-0-0--4--4--4-4--2--2--2-2--|
----------------------------------------------------------------------------|

(play Riff 1 again and fade out)
Tap to rate this tab
# A B C D E F G H I J K L M N O P Q R S T U V W X Y Z