Song name
# A B C D E F G H I J K L M N O P Q R S T U V W X Y Z

Local H - Cool Magnet tab

Help us improve GuitareTab! Take a short survey!
Song: Cool Magent
Artist: Local H
Album: Pack Up the Cats
Tabbed by: TK1

this is my second tab. Im almost certain this tab is completely correct. its in drop C# 
(C#,G#,C#,F#,A#,D#) with heavy distortion.


Intro
D#----------------------------|
A#----------------------------|
F#----------------------------|
C#----------------------------|
G#-----------5-3-3------------|
C#-0-0-5-6-7-------5-3-3-5b7--|3x

D#----------------------------|
A#----------------------------|
F#----------------------------|
C#----------------------------|
G#-----------5-3-3-5-3-3-5b7--|
C#-0-0-5-6-7-------5-3-3-5b7--|

D#----------------------------|
A#----------------------------|
F#----------------------------|
C#-----------7-5-5------------|
G#-0-0-5-6-7-5-3-3-5-3-3-5b7--|
C#-0-0-5-6-7-------5-3-3-5b7--|4x

Verse
D#-----------------------|
A#-----------------------|for the XXX's strike the strings as normal but
F#-----------------------|mute the strings near the fifth fret with your
C#-----------------------|fretting hand
G#-0-XXXXXXXX-5-3-3-5b7--|
C#-0-XXXXXXXX-5-3-3-5b7--|2x

D#---------------------------------------------|
A#---------------------------------------------|
F#---------------------------------------------|
C#---------------------------------------------|
G#-0-XXXXX-5-3-XXXXX-5b7-0-XXXXXXXX-5-3-3-5b7--|
C#-0-XXXXX-5-3-XXXXX-5b7-0-XXXXXXXX-5-3-3-5b7--|

D#----------------------------|
A#----------------------------|
F#----------------------------|
C#-----------7-5-5------------|
G#-0-0-5-6-7-5-3-3-5-3-3-5b7--|
C#-0-0-5-6-7-------5-3-3-5b7--|4x

D#----------------------------------------------|
A#----------------------------------------------|
F#----------------------------------------------|
C#----------------------------------------------|
G#-0-0-5-3-3-5b7-0-0-5-3-3-5b7-0-0-5-3-3-5b7-0--|
C#-0-0-5-3-3-5b7-0-0-5-3-3-5b7-0-0-5-3-3-5b7-0--|

D#------|
A#------|
F#------|
C#------|
G#-3-0--|this is when everything cuts out and its just
C#-3-0--|the bass.

D#--------------------------------|
A#--------------------------------|
F#--------------------------------|
C#-----------------7-7-5----------|
G#-3-5-3-0-0-5-6-7-5-5-3-6-5b7-3--|
C#-3-5-3-0-0-5-6-7-------6-5b7-3--|

D#-----------------------------------|
A#-----------------------------------|
F#-----------------------------------|
C#-----------------------------------|keep the same tempo as before
G#-33333333333333332222222211111110--|i just compacted the notes
C#-33333333333333332222222211111110--|to make it fit...

D#--------------------------|
A#--------------------------|
F#--------------------------|
C#--------------------------|
G#-3-0-0-3-0-0-3-3-3-0-3-0--|
C#-3-0-0-3-0-0-3-3-3-0-3-0--|2x

Verse
D#-----------------------|
A#-----------------------|
F#-----------------------|
C#-----------------------|
G#-0-XXXXXXXX-5-3-3-5b7--|
C#-0-XXXXXXXX-5-3-3-5b7--|2x

D#---------------------------------------------|
A#---------------------------------------------|
F#---------------------------------------------|
C#---------------------------------------------|
G#-0-XXXXX-5-3-XXXXX-5b7-0-XXXXXXXX-5-3-3-5b7--|
C#-0-XXXXX-5-3-XXXXX-5b7-0-XXXXXXXX-5-3-3-5b7--|

D#----------------------------|
A#----------------------------|
F#----------------------------|
C#-----------7-5-5------------|
G#-0-0-5-6-7-5-3-3-5-3-3-5b7--|
C#-0-0-5-6-7-------5-3-3-5b7--|4x

D#----------------------------------------------|
A#----------------------------------------------|
F#----------------------------------------------|
C#----------------------------------------------|
G#-0-0-5-3-3-5b7-0-0-5-3-3-5b7-0-0-5-3-3-5b7-0--|
C#-0-0-5-3-3-5b7-0-0-5-3-3-5b7-0-0-5-3-3-5b7-0--|

D#------|
A#------|
F#------|
C#------|
G#-3-0--|
C#-3-0--|

D#--------------------------------|
A#--------------------------------|
F#--------------------------------|
C#-----------------7-7-5----------|
G#-3-5-3-0-0-5-6-7-5-5-3-6-5b7-3--|
C#-3-5-3-0-0-5-6-7-------6-5b7-3--|

D#-----------------------------------|
A#-----------------------------------|
F#-----------------------------------|
C#-----------------------------------|
G#-33333333333333332222222211111110--|
C#-33333333333333332222222211111110--|

D#--------------------------------------------------|
A#--------------------------------------------------|
F#--------------------------------------------------|
C#--------------------------------------------------|
G#-3-0-0-3-0-0-3-3-3-0-3-0-0-3-0-0-3-0-0-1-1-1-1-1--|
C#-3-0-0-3-0-0-3-3-3-0-3-0-0-3-0-0-3-0-0-1-1-1-1-1--|2x

D#------------------------------|
A#------------------------------|
F#------------------------------|
C#------------------------------|
G#-1-1-1-1-1---1-1-1-1-1-5b7-0--|
C#-1-1-1-1-1---1-1-1-1-1-5b7-0--|

D#--------------|
A#--------------|
F#--------------|
C#--------------|
G#-5-3-3-5b7-0--|
C#-5-3-3-5b7-0--|play until end

D#----------------------------|
A#----------------------------|
F#----------------------------|comes in after above part
C#----------------------------|is played two times
G#-----------5-3-3------------|
C#-0-0-5-6-7-------5-3-3-5b7--|play until end

i could attempt to tab the solo, but i'll put that in another tab later. this is exactly 
you play the song, just read it all the way through and there you go.
Related for Cool Magnet tab