Song name
# A B C D E F G H I J K L M N O P Q R S T U V W X Y Z

Local Natives - Wide Eyes tab

tabbed this off of their YouTube video recorded for BBC 1 Radio.
couldn't see what guitar 1 plays at the end, but this is the
bulk of the song. im confident about the accuracy of these tabbed
parts and it sounds pretty good if you ask me. comment and rate
as you please, please! :D

Song: Wide Eyes
Artist: Local Natives
Album: Gorilla Manor
Year: 2009
Tabbed by: erik sanchez

INTRO/VERSE
GUITAR 1  repeat X4 for intro, cont'd throughtout song

e-----2-----2-------2----2--------2----2-----------2-----2-------|
B------3-----3-------3------3------3------3---------3-----3------|
G---------4------------------------------------(4)-----2--------.|
D--5----------------------------2-----2--2------4---------------.|
A----------------5------5--5-------------------------------------|
E----------------------------------------------------------------|

PRE-VERSE

GUITAR 2
e--------5\7------------------------------|
B--------------7\10-----------------------|
G---------------------7\11----------------|
D-----------------------------9/7---------|   X2
A-----------------------------------------|
E-----------------------------------------|


CHORUS

GUITAR 1 cont'd

GUITAR 2 triplet time

e---141414141414---121212121212---101010101010101010101010---|
B--151515151515---141414141414---121212121212121212121212----|
G------------------------------------------------------------|
D------------------------------------------------------------|  X2
A------------------------------------------------------------|
E------------------------------------------------------------|


BREAKDOWN

after short drum solo, GUITAR 1 kicks in with

GUITAR 1
e-----x~-----------2~----------------|
B-----3~-----------4~----------------|
G-----2~-----------2~----------------|
D-----2~-----------4~----------------|   X4
A-----2~-----------2~----------------|
E-----0~-----------------------------|

GUITAR 2 comes in with halfway with

GUITAR 2
e-------------------------------------------|
B---------------------10p7-10p7-10p7--------|
G---11p9-11p9-11p9--------------------------|
D-------------------------------------------|   X2
A-------------------------------------------|
E-------------------------------------------|

im not 100% on who/what plays this, but sounds good played on guitar.
sounds good if you use TREMOLO picking/effect
e------12------------9-10-----------------------|
B--12-----12----10------------7------10-12------|
G--------------------------7------9-------------|
D-----------------------------------------------|  X2
A-----------------------------------------------|
E-----------------------------------------------|

BRIDGE

GUITAR 1

e--------5\7------------------------------|
B--------------7\10-----------------------|
G---------------------7\11----------------|
D-----------------------------9/7---------|   X2
A-----------------------------------------|
E-----------------------------------------|

GUITAR 2

e---141414141414---121212121212---101010101010101010101010---|
B--151515151515---141414141414---121212121212121212121212----|
G------------------------------------------------------------|
D------------------------------------------------------------|  X2
A------------------------------------------------------------|
E------------------------------------------------------------|

OUTRO

GUITAR 1
continues first theme
e-----2-----2-------2----2--------2----2-----------2-----2------|
B------3-----3-------3------3------3------3---------3-----3-----|
G---------4------------------------------------(4)-----2--------|
D--5----------------------------2-----2--2------4---------------|
A----------------5------5--5------------------------------------|
E---------------------------------------------------------------|


GUITAR 2

e---------------------------------------------------------------|
B---------------------------------------------------------------|
G---7--77777--7\4-44/111111-------------------------------------|
D---5--55555--9\2-22/9-9-9-----4--44/7777---6--66/7777----------|
A------------------------------2--22/5555---4--44/5555----------|
E---------------------------------------------------------------|
Tap to rate this tab
# A B C D E F G H I J K L M N O P Q R S T U V W X Y Z