Song name
# A B C D E F G H I J K L M N O P Q R S T U V W X Y Z

Local Natives - Airplanes tab

Song: AIRPLANES
Artist: Local Natives
Album: "Gorilla Manor" [2010]

Tuning: Standard EADGBe

**Capo 2nd FRET

=========================================================

I know this isn't exactly how they play it.  This is my
interpretation.

The tune is the same throughout the whole song.
The chord progression goes like this:

   D                                   A7
e|-0-0-0-0-0-0-0-0-|-0-0-0-0-0-0-0-0-|-----------------|
B|-1-1-1-1-1-1-1-1-|-1-1-1-1-1-1-1-1-|-0-0-0-0-0-0-0---|
G|-0-0-0-0-0-0-0-0-|-0-0-0-0-0-0-0-0-|-0-0-0-0-0-0-0---|
D|-2-2-2-2-2-2-2-2-|-2-2-2-2-2-2-2-2-|-3-3-3-3-3-3-3---|
A|-3-3-3-3-3-3-3-3-|-3-3-3-3-3-3-3-3-|-2-2-2-2-2-2-2---|
E|-3-3-3-3-3-3-3-3-|-3-3-3-3-3-3-3-3-|-3-3-3-3-3-3-3-0-|

   Bm      A/D         Bm      A/D         A       A7
e|-------------------|-------------------|-----------------|
B|-1-1-1---1-1-1-1---|-1-1-1---1-1-1-1-1-|-0-0-0-0-0-0-0-0-|
G|-2-2-2---0-0-0-0---|-2-2-2---0-0-0-0-0-|-0-0-0-0-0-0-0-0-|
D|-2-2-2---2-2-2-2---|-2-2-2---2-2-2-2-2-|-0-0-0-0-3-3-3-3-|
A|-0-0-0---x-x-x-x---|-0-0-0---x-x-x-x-x-|-2-2-2-2-2-2-2-2-|
E|-------0-3-3-3-3-0-|-------0-3-3-3-3-3-|-3-3-3-3-3-3-3-3-|


Piano/Bass/Mandolin/Guitar Riff (NO CAPO):

e|----------------|------------------|----------------|
B|----------------|------------------|----------------|
G|----------------|------------------|----------------|
D|-------0--0-----|-------0--0---4-2-|-2--4-----------|
A|-0--2-----------|-0--2-------------|----------------|
E|----------------|------------------|--------------2-|

e|----------------------------------------------------|
B|----------------------------------------------------|
G|----------------------------------------------------|
D|----------------------------------------------------|
A|-2-------0-------2--------0-------------------------|
E|-------2-------2--------2----------2-0--------------|

LYRICS:

The desk where you sit inside of a frame
Made of, made of, of wood
I keep those chopsticks you had from when you
Taught abroad, taught abroad, in Japan

I love it all, so much I call!
I want you back, back, back
You back!

I did not know you as well as my
Father, father, knew you
Every question you took the time to see it in
Look it up, look it up, encyclopedia

I love it all, so much I call!
I want you back, back, back
You back!
I love it all, so much I call!
I want you back, back, back
You back!

It sounds like we have had a great deal
To say, to say, to each other
I bet when I leave my body for the sky
The wait, the wait, will be worth it

I love it all, so much I call!
I want you back, back, back
You back!
I love it all, so much I call!
I want you back, back, back
You back!

=========================================================
Tap to rate this tab
 
# A B C D E F G H I J K L M N O P Q R S T U V W X Y Z