Local Natives - Who Knows Who Cares tab

-------------------------------------------------------------------------------
		    WHO KNOWS, WHO CARES? - Local Natives
-------------------------------------------------------------------------------
Tabbed by:Alex Worthy
Email:azimuth457@gmail.com

NOTE: THIS IS THE ACOUSTIC VERSION, IT WILL NOT SOUND MUCH LIKE THE ALBUM VERSION.

Tuning: This tab is in standard, it is done 2 steps down by the band.

First part of the song(up to "So we took a van down to Colorado")
e|---------------------------------------------------------------------------|
B|---------------------------------------------------------------------------|
G|---------------------------------------------------------------------------|
D|---------------------------------------------------------------------------|
A|--1-1-1-1-1-1-1-1-5-5-5-5-5-5-5-5-6-6-6-6-5-5-5-5-6-6-6-6-5-5-5-5----------|
E|-1-1-1-1-1-1-1-1-5-5-5-5-5-5-5-5-8-8-8-8-6-6-6-6-8-8-8-8-4-4-4-4-----------|

The bass takes over, and the guitar becomes the following:

e|---------------------------------------------------------------------------|
B|---------------------------------------------------------------------------|
G|---------------------------------------------------------------------------|
D|---0-0-0-0-0-0-0-0-3-3-3-3-3-3-3-3-8-8-8-8-8-8-8-8-8-8-8-8-3-3-3-3---------|
A|--1-1-1-1-1-1-1-1-5-5-5-5-5-5-5-5-6-6-6-6-5-5-5-5-6-6-6-6-6-6-6-6----------|
E|---------------------------------------------------------------------------|

Eventually, the second guitar comes in with some chords: 

    V    V
e|---------------------------------------------------------------------------|
B|--8----8-------------------------------------------------------------------|
G|---10---10----7-7-7--101010-7-7-7------------------------------------------|
D|-----10---10--8-8-8--7-7-7--8-8-8------------------------------------------|
A|--------------101010-8-8-8--101010-----------------------------------------|
E|---------------------------------------------------------------------------|
The V's are my crude way of saying to up-strum the chords relatively slowly
(but be quick in between the repeat)


************************************

| /   slide up
| \   slide down
| h   hammer-on
| p   pull-off
| ~   vibrato
| +   harmonic
| x   Mute note
| b   Bend
| pb  Pre-bend
| br  Bend release
| pbr Pre-bend release
| brb Bend release bend
Tap to rate this tab
 
# A B C D E F G H I J K L M N O P Q R S T U V W X Y Z