Local Natives - Stranger Things tab

This song is easy peasy!

Here is the intro behind the sweet strings

e-------------------------------------|
B-------------------------------------|
G-------------------------------------|
D-----------------------------3-------|
A--3-----2------------0---2-----------|
E--------------3----------------------|

These are the chords for the rest of the song, listen to get the timing


e--0------0------1--|
B--1------0------3--|
G--0------0------2--|
D--2------2------0--|
A--3------3---------|
E-------------------|

That's it! Now go impress a special lady/man with what you learned
Tap to rate this tab
 
# A B C D E F G H I J K L M N O P Q R S T U V W X Y Z