Local Natives - Who Knows Who Cares tab

tabbed by: magicalphish
the_ninja_penguin@hotmail.com



This is the guitar part in the intro, and is used throughout the entirety of the song.


e-----------------------------------|
B-----------------------------------|
G---------------0-------------------|
D---------0--3-----0--3--0----------|
A--1-h-3---------------------3--1---|
E-----------------------------------|

e-----------------------------------|
B-----------------------------------|
G---------------0-------------2-----|
D---------0--3-----0--3--0----3-----|
A--1-h-3----------------------------|
E-----------------------------------|

second part

e-------------------------------------------------|  x 2 each time
B-------------------------------------6-------6---|
G---------------3-----5--3-----5--3-----5---------|
D---------3--5-----5--------5--------------7------|
A--3-h-5------------------------------------------|
E-------------------------------------------------|

Third Verse
 guitar in background
e----6--8--6-----6----------------------|
B----8--8--8--8--6----------------------|
G---------------------------------------|
D---------------------------------------|
A---------------------------------------|
E---------------------------------------|


solo



e-------------------------------------------|
B-------------------------------------------|
G-------------------------------------------|
D-----0-----0---------------0-----0---3--1--|
A--1-----1-------0h1p0---1-----1------------|
E-------------------------------------------|

e----------6--8--10--------6--------------|
B---6--8-------------8--8-----8--6--6-----|
G-----------------------------------------|
D-----------------------------------------|
A-----------------------------------------|
E-----------------------------------------|

Also if you want to play along with the strings:

e---------------------------------------------------------|
B------------------------11------------------11-----------|
G---5s7--7s10----10--12------12--10--10--12------12--10---|
D---------------------------------------------------------|
A---------------------------------------------------------|
E---------------------------------------------------------|

Tap to rate this tab
 
# A B C D E F G H I J K L M N O P Q R S T U V W X Y Z