Local Natives - Who Knows Who Cares tab

-------------------------------------------------------------------------------
			     Who Knows Who Cares - Local Natives
-------------------------------------------------------------------------------
Tabbed by: Moz4Life
Email: sparkyfungus@yahoo.com

Tuning:D tunning
This is the singers(Tyler) guitar part. I'll put up the second guitarists(Ryan)part when 
I figure it out.(btw, this is my first tab)

Intro: 0:00-0:19
d|---------------------------------------------------1-----1--x2-------------|
A|---------------------------------------1---3p1-------1---------------------|
F|---------2---0--------x4-----------0h2---------2-------2-------------------|
C|-----0h2--2----2---0-----------0h3-------3-------3-------------------------|
G|-0h3-------------3---------------------------------------------------------|
D|---------------------------------------------------------------------------|

0:20-1:41
d|---------------------------------------------------1-----1--x2-------------|
A|---------------------------------------1---3p1-------1---------------------|
F|---------2---0--------x2-----------0h2---------2-------2-------------------|
C|-----0h2--2----2---0-----------0h3-------3-------3-------------------------|
G|-0h3-------------3---------------------------------------------------------|
D|---------------------------------------------------------------------------|

at 1:41 Tyler stops playing until 1:59 at the end of part with the heavy drums with a F 
chord from 1:59-2:05

d|-x-|x16
A|-1-|
F|-2-|
C|-3-|
G|-3-|
D|-x-|

and than he goes straight back into the riff, playing it only once from 2:05-2:17

d|---------------------------------------------------1-----1--x2-------------|
A|---------------------------------------1---3p1-------1---------------------|
F|---------2---0--------x2-----------0h2---------2-------2-------------------|
C|-----0h2--2----2---0-----------0h3-------3-------3-------------------------|
G|-0h3-------------3---------------------------------------------------------|
D|---------------------------------------------------------------------------|

2:18-3:31
d|-0-------x-----------------------------------------------------------------|
A|-1--x16--1--x16------------------------------------------------------------|
F|-0-------2-----------------------------------------------------------------|
C|-2-------3-----------------------------------------------------------------|
G|-3-------3-----------------------------------------------------------------|
D|-0-------x-----------------------------------------------------------------|

3:32-3:53
d|-0----0----x----x----0--let the final chord ring---------------------------|
A|-1----1----1----1----1-----------------------------------------------------|
F|-0----0----2----2----0-----------------------------------------------------|
C|-2----3----3----3----2-----------------------------------------------------|
G|-3----3----3----3----3-----------------------------------------------------|
D|-0----0----x----x----0-----------------------------------------------------|

Leave a comment or email me if i missed anything. Thanks! :)

************************************

| /   slide up
| \   slide down
| h   hammer-on
| p   pull-off
| ~   vibrato
| +   harmonic
| x   Mute note
| b   Bend
| pb  Pre-bend
| br  Bend release
| pbr Pre-bend release
| brb Bend release bend

************************************
Tap to rate this tab
 
# A B C D E F G H I J K L M N O P Q R S T U V W X Y Z