Song name
# A B C D E F G H I J K L M N O P Q R S T U V W X Y Z

Local Natives - Wide Eyes tab

-------------------------------------------------------------------------------
			     Wide Eyes - Local Natives
-------------------------------------------------------------------------------
Tabbed by: Jason Paszek (Autopoietic Boy)
Email: J.W.Paszek.Guitar.Instruction@gmail.com

Tuning: Standard (EADGBe)

Intro and Verse 

e|-----2-----2--------------2-----2------2------2------2---------------------|
B|-------3-----3-----3--------3-----3------3------3------2-------------------|
G|--0------4-----------2--------------4-------------2------------------------|
D|-----------------0-----0------2-------------4------------------------------|
A|---------------------------------------------------------------------------|
E|---------------------------------------------------------------------------|

Gtr. 2 over Intro

e|--5/7----------------------------------------------------------------------|
B|-------7/10----------------------------------------------------------------|
G|------------7/11--7\2------------------------------------------------------|
D|---------------------------------------------------------------------------|
A|---------------------------------------------------------------------------|
E|---------------------------------------------------------------------------|

Bridge

e|---------------------------------------------------------------------------|
B|--3-------4-------3------4-------------------------------------------------|
G|---------------------------------------------------------------------------|
D|--2-------4-------2------4-------------------------------------------------|
A|--0-------2-------0------2-------------------------------------------------|
E|---------------------------------------------------------------------------|

Gtr. 2 played over bridge        Asus4   B

e|-------------------------------2-2-2-2-5-5-5-5-----------------------------|
B|--------------------------------5-5-5-5-7-7-7-7----------------------------|
G|---------------------------------------------------------------------------|
D|---------------------------------------------------------------------------|
A|---------------------------------------------------------------------------|
E|---------------------------------------------------------------------------|

e|---------------------------------------------------------------------------|
B|--8--8--8-8-8-10-5--5--5-5-5-----------------------------------------------|
G|--x--x--x-x-x-x--x--x--x-x-x-4--4--4-4--4--7--6--6--6-6--6--9--------------|
D|--5--5--5-5-5-7--2--2--2-2-2-x--x--x-x--x--x--x--x--x-x--x--x--------------|
A|-----------------------------2--2--2-2--2--5--4--4--4-4--4--7--------------|
E|---------------------------------------------------------------------------|



************************************

| /   slide up
| \   slide down
| h   hammer-on
| p   pull-off
| ~   vibrato
| +   harmonic
| x   Mute note
| b   Bend
| pb  Pre-bend
| br  Bend release
| pbr Pre-bend release
| brb Bend release bend

************************************
Tap to rate this tab
 
# A B C D E F G H I J K L M N O P Q R S T U V W X Y Z