Song name
# A B C D E F G H I J K L M N O P Q R S T U V W X Y Z

Local Natives - Breakers tab

-----------------------------------------------------------------------------
                             Breakers - Local Natives
-----------------------------------------------------------------------------
Tabbed by: Aric Hunter
Email: arichunter13@hotmail.com

Tuning: Standard

Feel free to message/e-mail me if you think something with this tab should be changed.

Intro Part:
E|-14-14-----12-12-12-12-----14-14---14-14-|
B|-14-14-----12-12-12-12-----14-14---14-14-|
G|-----------------------------------------|
D|-----------------------------------------|
A|-----------------------------------------|
E|-----------------------------------------|

|-14-14-----12-12-12-12-----16-16---16-16-|
|-14-14-----12-12-12-12-----16-16---16-16-|
|-----------------------------------------|
|-----------------------------------------|
|-----------------------------------------|
|-----------------------------------------|
The intro is played 4 times in the beginning

Chorus: (the ooooo oooooooo section at 0:33)
Note: I have the second measure (separated by the vertical line) as a different note 
from the first (I think it's better this way), but you can just repeat the notes from the 
first measure.
                        |<-you can just repeat the past part a second time
E|----------------------|----------------------|
B|----------------------|----------------------|
G|----------------------|----------------------|
D|-11-11-11-11-11-9-9-9-|-11-11-11-11-11-9-9-9-|
A|-9--9--9--9--9--9-9-9-|-9--9--9--9--9--9-9-9-|
E|----------------------|----------------------|

                  |<-you can just repeat the past part a second time
|-----------------|-----------------|
|-----------------|-----------------|
|-----------------|-----------------|
|-6-6-6-6-6-9-9-9-|-6-6-6-6-6-9-9-9-|
|-7-7-7-7-7-7-7-7-|-7-7-7-7-7-7-7-7-|
|-----------------|-----------------|
Chorus is played 2 times

Bridge 1 (starting at 0:50)
(you don't have to play the note on the D string, and the rhythm you use is up to you 
although I have solid 8th notes)

E|-------------------------|-------------------------|
B|-------------------------|-------------------------|
G|-------------------------|-------------------------|
D|-11-11-11-11-11-11-11-11-|-11-11-11-11-11-11-11-11-|
A|-12-12-12-12-12-12-12-12-|-12-12-12-12-12-12-12-12-|
E|-12-12-12-12-12-12-12-12-|-12-12-12-12-12-12-12-12-|

|-------------------------|-------------------------|
|-------------------------|-------------------------|
|-------------------------|-------------------------|
|-9--9--9--9--9--9--9--9--|-9--9--9--9--9--9--9--9--|
|-11-11-11-11-11-11-11-11-|-9--9--9--9--9--9--9--9--|
|-12-12-12-12-12-12-12-12-|-11-11-11-11-11-11-11-11-|
Bridge 1 is played 4 times

Bridge 2 (starting at 1:18, lyrics are "stare down the nose…")
E|----------------------|--------------------------|
B|----------------------|--------------------------|
G|----------------------|--------------------------|
D|-11-11-11-11-11-11-11-|-9--9--9--9--9--9--9--9---|
A|-12-12-12-12-12-12-12-|-11-11-11-11-9--9--9--9---|
E|-12-12-12-12-12-12-12-|-12-12-12-12-11-11-11-11--|

|-------------------------|-----------------|
|-------------------------|-----------------|
|-------------------------|-----------------|
|-9--9--9--9--9--9--9--9--|-6-6-6-6-6-6-6-6-|
|-11-11-11-11-11-11-11-11-|-7-7-7-7-7-7-7-7-|
|-12-12-12-12-12-12-12-12-|-9-9-9-9-9-9-9-9-|
Bridge 2 is played 4 times.


1:49
Chorus is played 3 times.

2:12
Intro Part is played 6 times.
The 4th time, it is changed slightly so that the last 4 notes are on the 12th fret 
rather than the 16th fret (just thought I should mention it).

2:59
Chorus is played 8 times.
Tap to rate this tab
 
# A B C D E F G H I J K L M N O P Q R S T U V W X Y Z