Song name
# A B C D E F G H I J K L M N O P Q R S T U V W X Y Z

Local Natives - Ceilings tab

-------------------------------------------------------------------------------
                        Local Natives - Ceilings
-------------------------------------------------------------------------------
Tabbed by: James Enalen
E-mail: enalenj@gmail.com

Tuning: E A D G B e

Chord shapes:

302000
807000
032010
002210

e|-------------------------------------------------------------------------------------|
B|---------------0------------------0--------------------------------------------------|
G|--------0-----------0-------0---------0----------------------------------------------|
D|------------2----------2h4---4----------4p2------------------------------------------|
A|-------------------------------------------------------------------------------------|
E|-----3------------3------------------3-----------------------------------------------|

Singing it along with this riff is difficult. the picking pattern is the same for all 
the chords. listen to the song carefully :)

Good luck!
Tap to rate this tab
# A B C D E F G H I J K L M N O P Q R S T U V W X Y Z