Song name
# A B C D E F G H I J K L M N O P Q R S T U V W X Y Z

Local Natives - Heavy Feet chords

This is my first tab and I'm lazy, but this is correct. I endlessly watched the acoustic version.


Intro and Verse

e|-------------------------------------------------------|
B|---5------4------9------9------2------5------9------9--|
G|---6------4------9------8------2------6------9------8--|
D|---7------5------9------9------4------6------9------9--|
A|---4------5------7------6------4------4------7------6--|
E|----------4--------------------2-----------------------|


Chorus
"After, everything...."
e|-------------------|
B|---7------5------5-|
G|---6------6------4-|
D|---7------6------6-|
A|---0------4------7-|
E|-------------------|
"..after, everything.."
e|-------------------|
B|---7------5------5-|
G|---6------6------4-|
D|---7------6------6-|
A|---0------4------7-|
E|-------------------|
"left in the sun, shimmering.."
e|-------------------|
B|---7------5------5-|
G|---6------6------4-|
D|---7------6------6-|
A|---0------4------7-|
E|-------------------|
"..after, everything."
e|-----------------------------|
B|---7------5------5-----------|
G|---6------6------4------6----|
D|---7------6------6------7----|
A|---0------4------7------0----|
E|-----------------------------|
Tap to rate this tab
# A B C D E F G H I J K L M N O P Q R S T U V W X Y Z