Song name
# A B C D E F G H I J K L M N O P Q R S T U V W X Y Z

Loch Lomond - Wax And Wire tab

Loch Lomond- "Wax and Wire"

Tuning- Standard (Eadgbe)




e|-----------------------------|
b|-----------------------------|
g|----2-2----0-0----0-0----0---|
d|----2-2----2-2----2-2----0---|  Intro x4
a|--0------2------3-------2----|
E|-----------------------3-----|
    P.m.

     Am    Em     C    G
e|----0-----0-----0----3--------|
b|----1-----0-----1----0--------|
g|----2-----0-----0----0--------|
d|----2-----2-----2----0--------|  Chorus
a|----0-----2-----3----2--------|
E|---------------------3--------|

Guitar Fillout 1.
 
e|------------------------------------------|
b|-----10-10----8--8-----13--13-----12--12--|
g|-----9--9-----7--7-----12--12-----12--12--|
d|-----7--7-----9--9-----10--10-------------|
a|--x--------x--------x-------------10--10--|
E|-------------------------------x----------|


Guitar Fillout 2.
e|-----------------------------|
b|------10---10-------8---8----|
g|----9----9----9---7---7---7--|
d|--7-------------9------------|
a|-----------------------------|
E|-----------------------------|
    P.m.

e|---------------------------------------|
b|--------13----13----------12----12-----|
g|-----12----12----12----12----12----12--|
d|--10-----------------------------------|
a|--------------------10-----------------|
E|---------------------------------------|
    P.m.

       D        Am
e|-----2---------0------------|
b|-----3---------1------------|
g|-----2---------2------------|
d|-----0---------2------------| Bridge/Outro
a|---------------0------------|
E|----------------------------|
Tap to rate this tab
 
# A B C D E F G H I J K L M N O P Q R S T U V W X Y Z